Marilyn Manson - Mechanical Animals Chords & Tabs

 

Mechanical Animals Chords & Tabs

Marilyn Manson Chords & Tabs

Version: 2 Type: Bass Tab

Mechanical Animals Bass Tab

   
         Mechanical animals bass tab

tabbed by:julien v.
mail:jv1_bass@yahoo.fr
album:mechanical animals(1998)
artist:marilyn manson

legend:
h:hammer on   \:slide up
/:slide down

4/4

INTRO
G|----------------:----------------------|
D|----------------:----------------------|
A|----------------:----------------------|
E|0-0-0-0-0-0-0-0-:0-0/12-12-12-12-12-12-|    x2
then
G|-----------------:----------------:-----------------------:------------------------|
D|-----------------:----------------:-----------------------:------------------------|
A|------------10-*-:----------------:------------------12-*-:------------------------|
E|8-8-8-8-8-8------:8-8-8-8-8-8-8-8-:10-10-10-10-10-10------:10-10-10-10-10-10-10-10-| 

MAIN RIFF
G|----------------:-------------------|
D|----------------:-------------------|
A|----------------:10-10-10---9---7---|
E|0---0---0-------:-------------------|    x2
then
G|----------------:----------------:----------------:------------------------|
D|----------------:----------------:----------------:------------------------|
A|----------------:----------------:----------------:------------------------|
E|8-8-8-8-8-8-8-8-:8-8-8-8-8-8-8-8-:7-7-7-7-7-7-7-7-:10-10-10-10-10-10-10-10-| 

CHORUS 1&2
G|----------------:----------------:----------------:------------------------|
D|----------------:----------------:----------------:------------------------|
A|----------------:----------------:----------------:------------------------|
E|3-3-3-3-3-3-3-3-:3-3-3-3-3-3-3-3-:2-2-2-2-2-2-2-2/:14-14-14-14-14-14-14-14-| 

G|-----------------:----------------:-----------------:----------------|
D|-----------------:----------------:-----------------:----------------|
A|------------10---:----------------:------------10---:----------------|
E|8-8-8-8-8-8------:8-8-8-8-8-8-8-8-:8-8-8-8-8-8------:8-8-8-8-8-8-8-8-|   
[ Tab from: http://www.guitartabs.cc/tabs/m/marilyn_manson/mechanical_animals_btab_ver_2.html ]
G|----------------:----------------:----------------:------------------------|
D|----------------:----------------:----------------:------------------------|
A|----------------:----------------:----------------:------------------------|
E|3-3-3-3-3-3-3-3-:3-3-3-3-3-3-3-3-:2-2-2-2-2-2-2-2/:14-14-14-14-14-14-14-14-|  

G|-----------------:----------------:----------------:------------------------|
D|-----------------:----------------:----------------:------------------------|
A|------------10---:----------------:----------------:------------------------|
E|8-8-8-8-8-8------:8-8-8-8-8-8-8-8-:7-7-7-7-7-7-7-7-:10-10-10-10-10-10-10-10-|

CHORUS 3
G|----------------:----------------:----------------:------------------------|
D|----------------:----------------:----------------:------------------------|
A|----------------:----------------:----------------:------------------------|
E|3-3-3-3-3-3-3-3-:3-3-3-3-3-3-3-3-:2-2-2-2-2-2-2-2/:14-14-14-14-14-14-14-14-| 

G|-----------------:----------------:-----------------:----------------|
D|-----------------:----------------:-----------------:----------------|
A|------------10---:----------------:------------10---:----------------|
E|8-8-8-8-8-8------:8-8-8-8-8-8-8-8-:8-8-8-8-8-8------:8-8-8-8-8-8-8-8-|   

G|----------------:----------------:----------------:------------------------|
D|----------------:----------------:----------------:------------------------|
A|----------------:----------------:----------------:------------------------|
E|3-3-3-3-3-3-3-3-:3-3-3-3-3-3-3-3-:2-2-2-2-2-2-2-2/:14-14-14-14-14-14-14-14-|  

G|-----------------:----------------:----------------:--------------------|
D|-----------------:----------------:----------------:--------------------|
A|------------10---:----------------:----------------:--------------------|
E|8-8-8-8-8-8------:8-8-8-8-8-8-8-8-:7-7-7-7-7-7-7-7-:7-7-7-7/10-10-10-10-|

BRIDGE(they'll never be...):
No bass for this bit

BRIDGE 2
guitar only

FINAL PART(I'm just a boy playing....)
G|----------------:----------------:----------------:----------------|
D|----5---5-------:----5---5-------:5-5-5-5-5-5-5-5-:----------------|
A|7-----------7-5-:7-----------7-5-:----------------:8-8-8-8-8-8-8-8-|
E|----------------:----------------:----------------:----------------|