Marilyn Manson - Man That You Fear Chords & Tabs

 

Man That You Fear Chords & Tabs

Marilyn Manson Chords & Tabs

Version: 2 Type: Tab 0 ratings
1 star 2 stars 3 stars 4 stars 5 stars
comments

Man That You Fear Tab

   
"Man That You Fear"
Marilyn Manson
Antichrist Superstar


Verse 1 (Piano arranged for Guitar 1)
e---5-6-15------12---9----17-15----------15-------17-17-|
B-------------------------------------------16-15-------|
G-----------------------------------12------------------|
D---------------------------------12--------13----------|
A--------------------0----------10----------------------|
E-3----------0---8--------------------------------------|

e-13-12-------------------9---10-12-15-15-----17--17-17-|
B-------------------------------------------------------|
G-------------------------------------------------------|
D--------10---------------7----------------17-----------|
A------10------10-12----7----------------17-------------|
E-----8------8--------5----------------15---------------|

e-----------17-17-15--------------------17-------------|
B---------------------------8--------------------------|
G-------14---------------------------------------------|
D-----13-----------------10---------7------------------|
A---13-----------------10---------7--------------------|
E-11------------------8---------5----------------------|

Chorus 1 (Guitar 2)
e------------------------------------------------------|
B------------------------------------------------------|
G-9-9-9-9-9\7-7-7-7-7\5-5-5-5-5-5-5-5------------------|
D-9-9-9-9-9\7-7-7-7-7\5-5-5-5-5-5-5-5------------------|
A-7-7-7-7-7\5-5-5-5-5\3-3-3-3-3-3-3-3------------------|
E------------------------------------------------------|

Chorus 1 (Piano arranged for Guitar 1)
e-12-12-12-12--14-14-14-14-15--15-15-15----------------|
B----------------------------------------15-17---------|
G----------------------------------------------12------|
D------------------------------------------------------|
A------------------------------------------------------|
E------------------------------------------------------|

Verse 2 (Acoustic with effect, Guitar 2)      *Fill
e---------------------------------0-------0-0-|--------|
B-------------------------------0---0-----0-0-|--------|
G---------8-------5-----------2-------2---2-2-|--------|
D-5--8x**-8--8x---5--8x-----2-----------2-2-2-|---5/---|
A-5-------6-------3-------0---------------0-0-|---5/---|
E-3-------------------------------------------|---3/---|
*The fill is a heavily distorted slide over the last
little bit of Verse 2A.
**Play G power chord 8 times, not play D string then
mute

Verse 2 (Piano arranged for Guitar 1)
e--------15---17-17-15----------15---17-17-15----------|
B------------------------------------------------------|
G-----12-----------------------------------------------|
D---12-----------------------13---------------------10-|
A-10-----------------------13---------------------10---|
E------------------------11----------------------8-----|

e-10-8-12----------9---17-15--15-------15-17-17-17-17--|
B----------10------------------------------------------|
G-----------------------------12-14-15-----------------|
D-----------------------------------------17-----------|
A------------------7-----------------------------------|
E----------------5-------------------------------------|

e---15-13-12---12-10---8-----------17------------------|
B-----------------------8------------------------------|
G------------------------------------------------------|
D-------------------------------7----------------------|
A-----------------------------7------------------------|
E-8-------------------------5--------------------------|
[ Tab from: http://www.guitartabs.cc/tabs/m/marilyn_manson/man_that_you_fear_tab_ver_2.html ]
Chorus 2 (Guitar 2, heavy distortion)
e------------------------------------------------------|
B------------------------------------------------------|
G--9----7----5----9----7----5----9----7----5-----------|
D--9----7----5-2x-9----7----5-2x-9----7----5-2x--------|
A--7----5----3----7----5----3----7----5----3-----------|
E--0--------------0--------------0---------------------|

Chorus 2 (Piano arranged for Guitar 1)
e-12---14---15---17---14-15-17-17---12---15---10-------|
B------------------------------------------------------|
G------------------------------------------------------|
D------------------------------------------------------|
A------------------------------------------------------|
E------------------------------------------------------|

e-10h12------------------------------------------------|
B--------13-12-10--------------------------------------|
G-------------------9----------------------------------|
D------------------------------------------------------|
A------------------------------------------------------|
E------------------------------------------------------|

Bridge (Guitar 1)       Bridge (Synth for Guitar 2)
e-----------------------|------------------------------|
B-----------------------|--2--1--2^---2--1--2--5^------|
G-2-------4------5------|------------------------------|
D-2--8x---4--4x--5--4x--|------------------------------|
A-0-------2------3------|------------------------------|
E-----------------------|------------------------------|

Verse 3 (Guitar 1, acoustic)
e--------------------------------------0-----0---------|
B--------------------------------------0---0-0---------|
G-0--------8--------5-5-----5-5------2---2---2---------|
D-0--10x---8--10x---5-5---5---5----2---------2---------|
A-2--------6--------3-3-3-----3--0-----------0---------|
E-3----------------------------------------------------|

e----------------------------------0-------------------|
B----------------------------------0-------------------|
G-0---0---0-0-0--8--------5--------2--6x---------------|
D-0---------0-0--8--10x---5--10x---2-------------------|
A-2-2---2---2-2--6--------3--------0-------------------|
E-3---------3-3----------------------------------------|

Outro (Piano arranged for Guitar 1)
e-12-14---14-15-17---10-12---------------12-14-15------|
B--------------------------13-12-----------------------|
G--------------------------------12-9------------------|
D------------------------------------------------------|
A------------------------------------------------------|
E------------------------------------------------------|

e-17-14-15-17---17-------------------------------------|
B------------------15-15h17--13-12-10------------------|
G-------------------------------------12-12h14---------|
D------------------------------------------------------|
A------------------------------------------------------|
E------------------------------------------------------|

e-12-14-15-17---17-22-19---14-10-12--14-14-10--24-20-22-|
B--------------------------13-13---------13-------------|
G-------------------------------------------------------|
D-------------------------------------------------------|
A-------------------------------------------------------|
E-------------------------------------------------------|

e-12-14-15-12---10-12-14-22---14-10---14-10-22---------|
B------------------------------------------------------|
G------------------------------------------------------|
D------------------------------------------------------|
A------------------------------------------------------|
E------------------------------------------------------|

Verse 1 (a guitar comes in playing the latter half)
Chorus 1A, 1B
Verse 2A, 2B, Fill
Chorus 2A, 2B
Bridge A, B
Verse 3
Chorus 2B, Outro

Original tab from www.bandtabs.com
 -staind_d@hotmail.com
Comments