Marilyn Manson - Lunchbox Chords & Tabs

 

Lunchbox Chords & Tabs

Marilyn Manson Chords & Tabs

Version: 6 Type: Tab 0 ratings
1 star 2 stars 3 stars 4 stars 5 stars
comments

Lunchbox Tab

   
Lunchbox by Marilyn Manson
Tabbed by: Max
Email: mm_nothing_nin@yahoo.com

Tuning: Standard

/ - Slide Up
\ - Slide Down
X - Scratch
: - Let Ring
~ - Vibrato
PM - Palm Mute
h - Hammer On
p - Pull Off
^ - Bend Up
^( ) - Bend Up Then Back Down To Original Note

Intro:
e|------------------------------------------------------
B|------------------------------------------------------
G|-----------------------11-11------------------14^(13)-
D|XXXXXX-7/9-9-XXX---XXX-10-10--7/9-9-XXX---XXX-13^(13)-
A|XXXXXX-5/7-7-XXX-5-XXX--------5/7-7-XXX-5-XXX---------
E|XXXXXX-------XXX-3-XXX--------------XXX-3-XXX---------

e|------------------------------------------------
B|------------------------------------------------
G|-----------------11-11------------------14^(14)-
D|-7/9-9-XXX---XXX-10-10--7/9-9-XXX---XXX-13^(13)-
A|-5/7-7-XXX-5-XXX--------5/7-7-XXX-5-XXX---------
E|-------XXX-3-XXX--------------XXX-3-XXX---------

Riff:
e|------------------------------------------------
B|------------------------------------------------
G|-----------------11-11------------------14^(14)-
D|-7/9-9-XXX---XXX-10-10--7/9-9-XXX---XXX-13^(13)-
A|-5/7-7-XXX-5-XXX--------5/7-7-XXX-5-XXX---------
E|-------XXX-3-XXX--------------XXX-3-XXX---------

e|-----------------------------------------------
B|-----------------------------------------------
G|-----------------11\6------------------14^(14)-
D|-7/9-9-XXX---XXX-10\5--7/9-9-XXX---XXX-13^(13)-
A|-5/7-7-XXX-5-XXX-------5/7-7-XXX-5-XXX---------
E|-------XXX-3-XXX-------------XXX-3-XXX---------
[ Tab from: http://www.guitartabs.cc/tabs/m/marilyn_manson/lunchbox_tab_ver_6.html ]
Pre-Verse:
e|-------------------------------------------------
B|-------------------------------------------------
G|----------------------------------12h14p12-------
D|---7------7------7------12-14-12-----------12h14-
A|2:-5-5-2--5-5-2--5-5-2---------------------------
E|0:---3-0----3-0----3-0---------------------------

Verse:
e|------- x4
B|-------
G|-------
D|-7-----
A|-5-5-2-
E|---3-0-

Pre-Chorus:
e|----
B|-6:-
G|-5:-
D|-3:-
A|----
E|----

Chorus:
e|---------------------------------------------------- x2
B|-6666666666-8888888888-8888888888-------------------
G|-5555555555-7777777777-8888888888-------------------
D|-3333333333-5555555555-8888888888-------------------
A|-----------------------------------3333333333333333-
E|-----------------------------------1111111111111111-

Second Verse:
e|-------------------- x8
B|--------------------
G|--------------------
D|--------------7-----
A|--------------5-5-2-
E|-000000000000---3-0-
  |_____PM_____| 

Solo:
e]----------------------------------------------------------
B]----------------15-------------------------------------15-
G]-------------12----14^(14)-12-14-12-14-12-14-12-14^(14)---
D]-12-12-12-14----------------------------------------------
A]----------------------------------------------------------
E]----------------------------------------------------------

e]----------------------------------------------------------
B]---------15---------15------------------------------------
G]-14^(14)----14^(14)----14^(14)-12-14-12-------------12-14-
D]----------------------------------------14-12-14-12-------
A]----------------------------------------------------------
E]----------------------------------------------------------

e]---------------------
B]---------------------
G]-12-14-14^-14-12-----
D]-----------------14--
A]---------------------
E]---------------------

Outro:
e|-------- x4
B|--------
G|--------
D|-7------
A|-5-5-2~-
E|---3-0~-

Song Structure:
Intro
Riff
Pre-Verse
Verse 2x
Pre-Chorus
Chorus
Riff
Verse
Second Verse
Pre-Chorus
Chorus
Solo
Chorus 2x
Outro
Comments