Marilyn Manson - Lucy In The Sky With Demons Chords & Tabs

 

Lucy In The Sky With Demons Chords & Tabs

Marilyn Manson Chords & Tabs

Version: 2 Type: Bass Tab 0 ratings
1 star 2 stars 3 stars 4 stars 5 stars
comments

Lucy In The Sky With Demons Bass Tab

   
Luci in the Sky with Demons - Marilyn Manson
Jon Craven (nojnevarc@hotmail.com; www.homestead.com/larsramirez)
(enters @ 0:10)

Riff 1: (x2)
G:---------0***-|---------3-2**-|---------0***-|-2-0****-5-7-|---------0***-|---------3-2**-|
D:-2-2-2-2------|-2-2-2-2-------|-2-2-2-2------|--------------|-2-2-2-2------|-2-2-2-2-------|
A:--------------|---------------|--------------|--------------|--------------|---------------|
E:--------------|---------------|--------------|--------------|--------------|---------------|

G:---------0***-|-2-0****-9-7-|
D:-2-2-2-2------|-------------|
A:--------------|-------------|
E:--------------|-------------|

Fill:
G:----------|----------|----------|--------|
D:----------|----------|----------|--------|
A:----------|----------|----------|--------|
E:-0*******-|-********-|-********-|-****-/-|

Riff 2: (x4)
G:---------------|-----------|---------------|----------|
D:---------------|-----------|---------------|----------|
A:---------------|------1--0-|---------------|----------|
E:-0*-0-0-3*-3-3-|-0***------|-0*-0-0-3*-3-3-|-0*******-|

Fill 1
Riff 1 (x2)

Fill 2:
G:----------|----------|----------|----------|-----------|
D:----------|----------|----------|----------|------9--8-|
A:----------|----------|----------|----------|-----------|
E:-0*******-|-********-|-********-|-********-|-0***------|

Riff 3: (x14)
G:-7-9**------|
D:-------9--8-|
A:------------|
E:------------|

Fill 3:
G:-7---------|----------|----------|----------|
D:-----------|----------|----------|----------|
A:---0******-|-********-|-********-|-********-|
E:-----------|----------|----------|----------|

Riff 4: (x2)
G:-9-7-----0--0-|-9-7-----7--7-|-9-7-----0--0-|-9-7----------|
D:-----9-8------|-----9-8------|-----9-8------|-----9-8-8--7-|
A:--------------|--------------|--------------|--------------|
E:--------------|--------------|--------------|--------------|

Riff 5: (x4)
G:-----------------|-----------------|-----------------|--------------|-----------------|
D:-----------------|-----------------|-----------------|---------8--7-|-----------------|
A:-----------------|-----------------|-----------------|--------------|-----------------|
E:-3-3-3-3-3-3-3-3-|-3-3-3-3-3-3-3-3-|-3-3-3-3-3-3-3-3-|-3-3-3-3------|-0-0-0-0-0-0-0-0-|
[ Tab from: http://www.guitartabs.cc/tabs/m/marilyn_manson/lucy_in_the_sky_with_demons_btab_ver_2.html ]
G:-----------------|-----------------|--------------|
D:-----------------|-----------------|---------8--7-|
A:-----------------|-----------------|--------------|
E:-0-0-0-0-0-0-0-0-|-0-0-0-0-0-0-0-0-|-0-0-0-0------|

Riff 4 (x4)

Fill 4:
G:------------|------------|------------|------------|
D:-8--7--8--7-|-8--7--8--7-|-8--7--8--7-|-8--7--8--7-|
A:------------|------------|------------|------------|
E:------------|------------|------------|------------|

Riff 1 (x2)

Fill 5:
G:-----------------|----------------|
D:-----------------|----------------|
A:-7-7-7-7-7-7-7-7-|-7-7-7-7-7-7--R-|
E:-----------------|----------------|

Riff 5 (x2)

End:
G:------------|------------|------------|------------|------------|------------|
D:-R--R--8--7-|-R--R--8--7-|-R--R--8--7-|-R--R--8--7-|-R--R--8--7-|-R--R--8--7-|
A:------------|------------|------------|------------|------------|------------|
E:------------|------------|------------|------------|------------|------------|

Break till end
===========
Marilyn Manson Bass Tabs 
Lucy in the Sky With Demons
Marilyn Manson
from the "Family Jams" demo (1992)

by Ron


Guitar Intro - bass out

Intro
D|---------1----------3-1----------1----------1-3-|
A|-1-1-1-1----1-1-1-1------1-1-1-1----1-1-1-1-----|
E|------------------------------------------------|
(Repeat until "You're sick, and you're gonna stay sick.")

1st Verse
D|---------1-3----------3-1-|
A|-1--2--1------1--2--1-----|
E|--------------------------|
(After lyrics go "In our space we lie", play
 A|-2//////////////////14-|
    ^Hold this note for a while, then slide quickly)

Pre-chorus
("To an unseen god we will dance, dance, dance...")
Play Intro

Bridge
("Worship Satan...")
D|---13-15--------|
A|---------15--14-|
E|----------------|
(Repeat until "Sketch a little key hole...")

Bridge con't
("Sketch a little key hole...")
Play Intro

1st Chorus
("Cut, cut, cut in pantomine, mine, mine...")
A|-2-2-2-2-2-2-2--1-0----------------1-0-|
E|--------------------4-4-4-4-4-4-4------|

Bridge again
(There are no lyrics here, but the music is the same as
 in the "Sketch a little key hole..." part)
Play Intro

1st Chorus ending
A|-2-1-|
E|-----|
(Repeat until lyrics start up again)

2nd Verse
Play Intro

2nd Chorus
Play line from 1st Chorus

2nd Chorus ending
Play line from 1st Chorus ending, but add a short pause between
each repeat.

Hope you like this.  This is a dark, moody song, from the "demo
days" of Marilyn Manson, which (in my opinion) was when MM made
the BEST music.
Comments