Marilyn Manson - Little Horn Chords & Tabs

 

Little Horn Chords & Tabs

Marilyn Manson Chords & Tabs

Version: 3 Type: Tab 0 ratings
1 star 2 stars 3 stars 4 stars 5 stars
comments

Little Horn Tab

   
e-------------------------------------------------------------
B-------------------------------------------------------------
G-------------------------------------------------------------
D-------------------------------------------------------------
A-------------------------------------------------------------
D3-0-0-3-0-0-3-0-0-3-0-0-3-0-5~-3-0-0-3-0-0-3-0-0-3-0-0-6-5-3~ Intro/Verse 1  

e-------------------------------------------------------------
B-------------------------------------------------------------
G-------------------------------------------------------------
D3-0-0-3-0-0-3-0-0-3-0-0-3-0-5~-3-0-0-3-0-0-3-0-0-3-0-0-6-5-3~ 
A3-0-0-3-0-0-3-0-0-3-0-0-3-0-5~-3-0-0-3-0-0-3-0-0-3-0-0-6-5-3~  
D3-0-0-3-0-0-3-0-0-3-0-0-3-0-5~-3-0-0-3-0-0-3-0-0-3-0-0-6-5-3~ Intro/Verse 2
[ Tab from: http://www.guitartabs.cc/tabs/m/marilyn_manson/little_horn_tab_ver_3.html ]
e----------------------
B----------------------
G----------------------
D6---6---6---6--6/-5/-3
A6---6---6---6--6/-5/-3
D6---6---6---6--6/-5/-3 Pre-Chorus

e------------------------------------------------
B------------------------------------------------
G------------------------------------------------
D0--0-6/-3-0-5-0-1-3-0-0-3-0-0-3-0-0-3-0-0-3-0-5~
A0--0-6/-3-0-5-0-1-3-0-0-3-0-0-3-0-0-3-0-0-3-0-5~
D0--0-6/-3-0-5-0-1-3-0-0-3-0-0-3-0-0-3-0-0-3-0-5~ Chorus 

e-------------------
B-------------------
G-------------------
D6/-5/-3/-10-0-0-0-0
A6/-5/-3/-10-0-0-0-0
D6/-5/-3/-10-0-0-0-0  Bridge
p.m           . . . .

STRUCTURE

Intro  1   x2
Intro  2   x2
Pre-Chorus x4
Chorus 1   x2
Verse  1   x1
Verse  2   x1
Pre-Chorus x4
Chorus 1   x2
Bridge     x4
Verse  1   x2
Pre-Chorus x4
Chorus     x2

This is off Mansons 1996 album 'Antichrist Superstar', which is his best album
so far. E-mail me at Druz666@bolt.com for requests n h8 mail etc.
yeah........ !!!!!!Shock Absorbant Water Melons!!! from dan. keep lookin
forward to more (correct) MANSON tabs from me, enjoy!!!
Comments