Marilyn Manson - Last Day On Earth Acoustic Chords & Tabs

 

Last Day On Earth Acoustic Chords & Tabs

Marilyn Manson Chords & Tabs

Version: 2 Type: Tab 0 ratings
1 star 2 stars 3 stars 4 stars 5 stars
comments

Last Day On Earth Acoustic Tab

   
Last Day on Earth (Acoustic)(The Last tour on earth)
Marilyn Manson
Tabbed by Carlos Carvallo  Malditajaula_666M@hotmail.com          

Intro

E|---0-----9-----9----0-----9---|
B|-----7-----7-----7----7-------|
G|-------0-----0----------0-----|
D|------------------------------|
A|------------------------------|
E|------------------------------|

Fig. 1
    Bm      G       Em              D5     C5     B5               
E|----------3-------0--|       E|---------------------|
B|----------3-------0--|       B|---5-----------------|
G|--7-------4-------0--|       G|---7------5------4---|
D|--9-------5-------2--|       D|---7------5------4---|
A|--9-------5-------2--|       A|---5------3------2---|
E|--7-------3-------0--|       E|---------------------|
               

Fig. 2 Verses
[ Tab from: http://www.guitartabs.cc/tabs/m/marilyn_manson/last_day_on_earth_acoustic_tab_ver_2.html ]
    Am    G     C     G     Am    G   D
e|--0-----3-----0-----3-----0-----3------|
B|--1-----3-----1-----3-----1-----0---0--|
G|--2-----4-----0-----0-----2-----0---7--|
D|--2-----5-----2-----0-----2-----0---7--|
A|--0-----5-----3-----2-----0-----2---5--|
E|--------3-----------3-----------3------|

Guitar 2

    Am    G     C5    G5    Am    G   D
e|--5-----------------------5---------5--|
B|--5-----3-----------------5-----3---5--|
G|--5-----4-----5-----------5-----4---7--|
D|--7-----5-----5-----5-----7-----5---7--|
A|--7-----5-----3-----5-----7-----5---5--|
E|--5-----3-----------3-----5-----3------|

Chorus play the Fig. 1

Fig. 3

Keyboard arranged for guitar solo

e|-----7-----10--8--7--8-----7-----5-----|
B|--5-----8---------------5-----8-----5--|
G|---------------------------------------|
D|---------------------------------------|
A|---------------------------------------|
E|---------------------------------------|

Fig. 2 with both guitars.

That is all.
Comments