Marilyn Manson - Lamb Of God Chords & Tabs

 

Lamb Of God Chords & Tabs

Marilyn Manson Chords & Tabs

Version: 1 Type: Tab 0 ratings
1 star 2 stars 3 stars 4 stars 5 stars
comments

Lamb Of God Tab

   
"Lamb of God"
BY: Marilyn Manson
Standard tunning

(Drums start)
Verse:Am    G   F     Am      G   F
e-----0---------------0---------------------------------------
B-----1-----3---1-----1-------3---1----------------------------------
G-----2-----4---2-----2-------4---2-----------------------------------
D---2-------5---3----2--------5---3------------------------------------ 
A--0-------5---3----0--------5---3-------------------------------------
E---------3---1-------------3---1------------------------------------
[ Tab from: http://www.guitartabs.cc/tabs/m/marilyn_manson/lamb_of_god_tab.html ]
Pre-Chorus:
  Am                G                  F
e-0-----------------3------------------1-------------
B-1-----------------3------------------1-------------
G-2-----------------4------------------2-------------
D-2-----------------5------------------3-------------
A-0-(play 8 times)--5------------------3-------------
E-------------------3--(play 4 times)--1-(play 4 times)
"If you die and there's noboody watchin"

Chorus:

e---------------------------------------------------
B---------------------------------------------------
G-5-----------------2-------------------------------
D-5(8x)5(8x)3(16x)--2(8x)-5(8x)-3(8x)---------------
A-3----5----3-------0-----5-----3-------------------
E------3----1-------------3-----1--------------------
"Nothings gonna change the world..."
Comments