Marilyn Manson - Lamb Of God Chords & Tabs

 

Lamb Of God Chords & Tabs

Marilyn Manson Chords & Tabs

Version: 3 Type: Bass Tab 0 ratings
1 star 2 stars 3 stars 4 stars 5 stars
comments

Lamb Of God Bass Tab

Lamb of God - Marilyn Manson

By: Jon Craven (i_apathy@hotmail.com)
For questions, comments, feedback, an outline of the timing, write the above
address.

Notes:
  -Played with a pick.
  -The tempo seems between 80 and 81 bpm; using a metrinome, you'll notice it
seems off.

(4/4)(81 bpm)
Standard tuning

* - note held for an eighth beat
/ - slide up

Verse: (x4)(0:12)
|----------------|----------------|
|----------------|----------------|
|----------------|----------------|
|5---8-*-*-*-*-*-|5-7-8---1-*-*-/-|
[ Tab from: http://www.guitartabs.cc/tabs/m/marilyn_manson/lamb_of_god_btab_ver_3.html ]
Pre-chorus: (x4)(0:36)
|----------------|----------------|
|----------------|----------------|
|0-0-0-0-0-0-0-0-|3-3-3-3---------|
|----------------|--------1-1-1-1-|

Rest for six measures
Verse (x4)
Pre-chorus (x4)

Chorus: (x2)(2:05)
|----------------|----------------|----------------|----------------|
|----------------|----------------|----------------|----------------|
|3-3-3-3-3-3-3-3-|0-0-0-0-0-0-0-0-|----------------|----------------|
|----------------|----------------|1-1-1-1-1-1-1-1-|1-1-1-1-1-1-1-1-|

Rest for twelve measures
Chorus (x4)
Rest till end
Comments