Marilyn Manson - King Kill 33 Chords & Tabs

 

King Kill 33 Chords & Tabs

Marilyn Manson Chords & Tabs

Version: 2 Type: Tab 0 ratings
1 star 2 stars 3 stars 4 stars 5 stars
comments

King Kill 33 Tab

King Kill 33 by Marilyn Manson
Guitarist: John5
Album: Holy Wood (In The Shadow Of The Valley Of Death)
Dif.: 5
Tabbed by Twiggy5

Fill (Gtr. 1) (clean)
D|--1-------|
A|--1-------|
D|--1-------|

Intro (Gtr. 1) (w/ dist.)
D|-1-1-------1-1-----------------1-1-------7-7-7-7--|
A|-1-1--4h6--1-1--6p4------------1-1--4h6--7-7-7-7--|
D|-1-1-------1-1-----------------1-1-------7-7-7-7--|

Verse/Chorus (Gtr. 1)
D|-1-1-----|---|---|-1-1-----|-1-1-----|---|---|-7-7-7-7-|
A|-1-1-4h6-|-%-|-%-|-1-1-6p4-|-1-1-4h6-|-%-|-%-|-7-7-7-7-|
D|-1-1-----|---|---|-1-1-----|-1-1-----|---|---|-7-7-7-7-|
[ Tab from: http://www.guitartabs.cc/tabs/m/marilyn_manson/king_kill_33_tab_ver_2.html ]
Verse/Chorus (Gtr. 2) (“And I have to tell you..”)
E|--17-------------------------------17----------------|
B|---------16----17-----------------------16-----17----|
G|---------------------15---14-------------------------|

Song Structre: -
Bees
“Blame Me”
Fill
Intro (Gtr. 1)
Verse (Gtr. 1)
Verse (Gtr. 1)/Verse (Gtr. 2)
Chorus (Gtr. 1)/Chorus (Gtr. 2)

Simple as pie... Well maybe easier... Guitar 2 is a synth. guitar... And it's really kool cause this song is about Kennedy, I mean Kennedy was the 33rd president.. If you have any comments, corrections or suggestion email me at ToXic345x@yahoo.com

Comments