Marilyn Manson - King Kill 33 Chords & Tabs

 

King Kill 33 Chords & Tabs

Marilyn Manson Chords & Tabs

Version: 2 Type: Bass Tab 0 ratings
1 star 2 stars 3 stars 4 stars 5 stars
comments

King Kill 33 Bass Tab

Pause on the intro for 4 beats in between the two parts

Intro
G:-------------------------------------
D:-------------------------------------
A:-----4-6-----6-4------------4-6---000
E:-0-0-----0-0-------------0-0-----0---
[ Tab from: http://www.guitartabs.cc/tabs/m/marilyn_manson/king_kill_33_btab_ver_2.html ]
Verse - Finish the song on this
G:--------------------------------------------------------------
D:--------------------------------------------------------------
A:-----4-6-----6-4-----4-6-----6-4-----4-6-----6-4-----4-6---000
E:-0-0-----0-0-----0-0-----0-0-----0-0-----0-0-----0-0-----0----
Comments