Marilyn Manson - Ka-boom Ka-boom Chords & Tabs

 

Ka-boom Ka-boom Chords & Tabs

Marilyn Manson Chords & Tabs

Version: 2 Type: Tab 0 ratings
1 star 2 stars 3 stars 4 stars 5 stars
comments

Ka-boom Ka-boom Tab

   
I looked in a few different areas for this tab and i finally found, what i think, is the 
one.
This is my first tab.
Enjoy.

          Dropped D

          Intro 1 (Guitar 1)                       Intro 2
          e-------------------------------|------11---------11-|
          B-------------------------------|-10---------10------|
          G-------------------------------|--------------------|
          D-2---3---4-2-1---2---3---4-2-1-|--------------------|
          A-2---3---4-2-1---2---3---4-2-1-|--------------------|
          D-2---3---4-2-1---2---3---4-2-1-|--------------------|

          Riff 1A (Guitar 1)  Three times then:
          e------------------------|---------------------------|
          B------------------------|---------------------------|
          G------------------------|---------------------------|
          D-2-1-x-x-x-x-8-x-x-x-x--|-2-1-x-x-x-x-8-8-6-6-6-----|
          A-2-1-x-x-x-x-7-x-x-x-x--|-2-1-x-x-x-x-7-7-5-5-5-----|
          D-2-1-x-x-x-x-8-x-x-x-x--|-2-1-x-x-x-x-8-8-6-6-6-----|

          Riff 1B (Guitar 2, some harmonics)
          e----------------------------------------------------|
          B-----11^--9---(11)-11---(11)-10--10\--2-4-----------|
          G-8--------------------------------------------------|
          D----------------------------------------------------|
          A----------------------------------------------------|
          D----------------------------------------------------|

          Verse 1
          e----------------------------------------------------|
          B----------------------------------------------------|
          G----------------------------------------------------|
          D-------------1-----------------------1--------------|
          A-------------0-----------------------0--------------|
          D-2-1-x-x-x-x-1-x-x-x-x---2-1-x-x-x-x-1-x-x-x-x------|
          ("He is the angel with...")

          Verse 2
          e----------------------------------------------------|
          B----------------------------------------------------|
          G----------------------------------------------------|
          D-2-1-x-x-x-x--x-x-x-x--2-1-x-x-x-x--x-x-x-x---------|
          A-2-1-x-x-x-x--x-x-x-x--2-1-x-x-x-x--x-x-x-x---------|
          D-2-1-x-x-x-x--x-x-x-x--2-1-x-x-x-x--x-x-x-x---------|
[ Tab from: http://www.guitartabs.cc/tabs/m/marilyn_manson/ka_boom_ka_boom_tab_ver_2.html ]
          Riff 2
          e----------------------------------------------------|
          B----------------------------------------------------|
          G----------------------------------------------------|
          D-6---9--13---1m------6---6---9--13---1m------6------|
          A-6---9--13---1m-(x7)-5---6---9--13---1m-(x7)-5------|
          D-6---9--13---1m------6---6---9--13---1m------6------|
          ("He is the maker...")

          Bridge A (Guitar 1) Three times then:
          e--------------------|-------------------------------|
          B--------------------|-------------------------------|
          G-3---2--------------|-3---2---9---10---11-----------|
          D-3---2---2---3---4--|-3---2---9---10---11-----------|
          A-1---0---2---3---4--|-1---0---7----8----9-----------|
          D---------2---3---4--|-------------------------------|
          ("Get back...")

          Bridge B (Guitar 2)
          e----------------------------------------------------|
          B-12--11--14--15--12---12--11--14--15--12------------|
          G----------------------------------------------------|
          D----------------------------------------------------|
          A----------------------------------------------------|
          E----------------------------------------------------|

          Outro
          e-18--18--18--18--18-18-18-18------------------------|
          B---------------------------------9/11^--9--11-------|
          G------------------------------8---------------------|
          D----------------------------------------------------|
          A----------------------------------------------------|
          D----------------------------------------------------|

          (continued)
          e---------------------------------14-11--9-11--14-11-|
          B-11h12p11--11--10h11p10-9---------------------------|
          G---------------------------6--8---------------------|
          D----------------------------------------------------|
          A----------------------------------------------------|
          D----------------------------------------------------|

          (continued)
          e-9-11--11--18-18-18-18-18--9-11---------------------|
          B----------------------------------------------------|
          G----------------------------------------------------|
          D----------------------------------------------------|
          A----------------------------------------------------|
          D----------------------------------------------------|

          Intro 1
          Intro 2
          Riff 1A, 1B
          Verse 1
          Verse 2
          Riff 2
          Intro 1, 2
          Riff 2
          Bridge A, B
          Verse 1
          Riff 1A
          Riff 1A, Outro

          This song has a lot of dischords that actually made it
          kind of hard to tab. It's a pretty good song.
Comments