Marilyn Manson - Iv-tv Chords & Tabs

 

Iv-tv Chords & Tabs

Marilyn Manson Chords & Tabs

Version: 1 Type: Tab 0 ratings
1 star 2 stars 3 stars 4 stars 5 stars
comments

Iv-tv Tab

Song: IV-TV
Artist: Marilyn Manson
Written by: Daisy,Gein
Lyrics by: Marilyn Manson
Album: ?   
tabed by: Per "Pogo" Stenberg
fanta98@hotmail.com


Now that is a good song.
I think it is the best demo song.
Good lyrics, good guitars and good bass.
The Bridge is so fucking good. 
This was VERY hard to tab. maybe the hardest.
Really hope you enjo it...  :)


Intro A  (Bass)

-------------------------------------------------------------
-0-0-0-2--------0-0-0-2--------------------------------------
---------2---0----------2---0-0-0-2-3-3-3-2--0-0-0-2-3-3-3-2-
-------------------------------------------------------------


Intro B  (Guitar)

------------------------------0-------0-----0------0-
-----------------------------------------------------
-----2-----2-----2-----2-----------------------------
---2-----2-----2-----2------2------2------2------2---
-0-----0-----0-----0---------------------------------
--------------------------0------0------0------0-----


Intro C  (Guitar)
(This I'm not sure of... 
but it is better then nothing)

--------5^5^-------5^5^----------------
--------7^7^-------7^7^----------------
-7-9-4-------7-9-4-----2-4-5-4-2-4-5-4-
-7-9-4-------7-9-4-----2-4-5-4-2-4-5-4-
-5-7-2-------5-7-2-----0-2-3-2-0-2-3-2-
---------------------------------------


Verse 1 A  (Bass)

-------------------------------------------------------------
-0-0-0-2--------0-0-0-2--------------------------------------
---------2---0----------2---0-0-0-2-3-3-3-2--0-0-0-2-3-3-3-2-
-------------------------------------------------------------


Verse 1 B  (Guitar)

------------------------------0-------0-----0------0-
-----------------------------------------------------
-----2-----2-----2-----2-----------------------------
---2-----2-----2-----2------2------2------2------2---
-0-----0-----0-----0---------------------------------
--------------------------0------0------0------0-----


Bridge (Guitar)
(I can't hear this part so good 
but I think this is correct)

------2----------0----------0-
--------2----------0--------0-
------------------------------
---4----------2----------4----
-2----------0----------2------
------------------------------Verse 2 A  (Bass)
[ Tab from: http://www.guitartabs.cc/tabs/m/marilyn_manson/iv_tv_tab.html ]
-------------------------------------------------------------
-0-0-0-2--------0-0-0-2--------------------------------------
---------2---0----------2---0-0-0-2-3-3-3-2--0-0-0-2-3-3-3-2-
-------------------------------------------------------------


Verse 2 B (Guitar)

------------------------------0-------0-----0------0-
-----------------------------------------------------
-----2-----2-----2-----2-----------------------------
---2-----2-----2-----2------2------2------2------2---
-0-----0-----0-----0---------------------------------
--------------------------0------0------0------0-----


Bridge (Guitar)
(I love these part)

------2----------0----------0-
--------2----------0--------0-
------------------------------
---4----------2----------4----
-2----------0----------2------
------------------------------


Chours
"All we do is fight..."

--------5^5^-------5^5^----------------
--------7^7^-------7^7^----------------
-7-9-4-------7-9-4-----2-4-5-4-2-4-5-4-
-7-9-4-------7-9-4-----2-4-5-4-2-4-5-4-
-5-7-2-------5-7-2-----0-2-3-2-0-2-3-2-
---------------------------------------

Efter the Chours

-5^--5^-
-7^--3^-
--------
--------
--------
--------


Verse 3 A  (Bass)

-------------------------------------------------------------
-0-0-0-2--------0-0-0-2--------------------------------------
---------2---0----------2---0-0-0-2-3-3-3-2--0-0-0-2-3-3-3-2-
-------------------------------------------------------------


Verse 3 B  (Guitar)

------------------------------0-------0-----0------0-
-----------------------------------------------------
-----2-----2-----2-----2-----------------------------
---2-----2-----2-----2------2------2------2------2---
-0-----0-----0-----0---------------------------------
--------------------------0------0------0------0-----

Bridge (Guitar)
(Once again)

------2----------0----------0-
--------2----------0--------0-
------------------------------
---4----------2----------4----
-2----------0----------2------
------------------------------


Chours
"All we do is fight..."

--------5^5^-------5^5^----------------
--------7^7^-------7^7^----------------
-7-9-4-------7-9-4-----2-4-5-4-2-4-5-4-
-7-9-4-------7-9-4-----2-4-5-4-2-4-5-4-
-5-7-2-------5-7-2-----0-2-3-2-0-2-3-2-
---------------------------------------

Efter the Chours

-5^--5^-
-7^--3^-
--------
--------
--------
--------

Thank for reading my tab...
Corrections?

Per "Pogo" Stenberg
fanta98@hotmail.com
Comments