Marilyn Manson - Irresponsible Hate Anthem Live Chords & Tabs

 

Irresponsible Hate Anthem Live Chords & Tabs

Marilyn Manson Chords & Tabs

Version: 1 Type: Tab 0 ratings
1 star 2 stars 3 stars 4 stars 5 stars
comments

Irresponsible Hate Anthem Live Tab

   
Irresponsible Hate Anthem (Live) by Marilyn Manson
Guitarist: John5
Album: The Last Tour On Earth
Dif.: 7
Tabbed by TWIGGy5

Intro/Interlude
D|-4-4-4-7-7-7-9-910-10-10-9-9-9-7--4-4-4-7-7-7-9-9-2-2-2-3-|
A|-4-4-4-7-7-7-9-910-10-10-9-9-9-7--4-4-4-7-7-7-9-9-2-2-2-3-|
E|-2-2-2-5-5-5-7-7-8--8--8-7-7-7-5--2-2-2-5-5-5-7-7-0-0-0-1-|

Fill 1
E|-0-----------------------|
B|-0-----------------------|
G|-3-----------------------|
D|-4-Pull-up-on-whammy-bar-|
A|-4-----------------------|
E|-2-----------------------|

Verse (“I hate the hater…”)
G|-7--7--7--7--7--7--7--7--|-%-|
D|-6--6--6--6--6--6--6--6--|-%-|

Chorus (“Everybody’s someones elses…”)
D|-4-/10-9-7-9-7-|-%-|-%-|-2----------3-|
A|-4-/10-9-7-9-7-|-%-|-%-|-2----------3-|
E|-2-/-8-7-5-7-5-|-%-|-%-|-0----------1-|

Bridge
B|--------------------------------------11----|
G|-11--12--11--12-11-12--11--12--11--12----12-|
[ Tab from: http://www.guitartabs.cc/tabs/m/marilyn_manson/irresponsible_hate_anthem_live_tab.html ]
Fill 2 (3rd “Better better…”)
A|-8^---(8)^--|
   ^ Bend before piking ˝ step then bring back down to bracketed 8 and back up a full step

Bridge P2
B|--------------------------------------11----|
G|-11--12--11--12-11-12--11--12--11--12----12-| 5x

Bridge P2 (cont.)
G|-11--12--11--12--11--12---------------|
D|-------------------------0-Pull-------|
A|-------------------------0-up-on------|
E|-------------------------0-whammy-bar-|

Outro
D|-4-4-4-10-10-10-9-9-7-7-7-9-9-9-7-7-|
A|-4-4-4-10-10-10-9-9-7-7-7-9-9-9-7-7-|
E|-2-2-2--8--8--8-7-7-5-5-5-7-7-7-5-5-|

End
D|---------4--4--4--4--|
A|-2-------4--4--4--4--|
E|-0(16x)--2--2--2--2--|

Song Structure: 
And all the children sing……..
Fuck It!!!!!!!!!!!!!!!!!!!!!!!!!!!!!!!!!!!
Intro
Fill 1
Verse - Bass (“I am so all american…”)
Verse P2
Interlude (“Fuck It!!!!!!!!!!!!!!!!!!”)
Fill 1
Verse - Bass
Verse P2 (“I am the ism…”)
Interlude
Chorus
Bridge
Break
Fill 2
Verse 2 P2
Interlude
Chorus
Bridge P2
Outro
End
Random Shit

Okay there ya go.. Great ass song. Any comments 
corrections or suggestions email me at toxic345x@yahoo.ca
Comments