Marilyn Manson - In The Valley Of The Shadow Of Death Chords & Tabs

 

In The Valley Of The Shadow Of Death Chords & Tabs

Marilyn Manson Chords & Tabs

Version: 1 Type: Tab 0 ratings
1 star 2 stars 3 stars 4 stars 5 stars
comments

In The Valley Of The Shadow Of Death Tab

   
In The Shadow Of The Valley Of Death by Marilyn Manson
Guitarist: John5
Album: Holy Wood (In The Shadow Of The Valley Of Death)
Dif.: 5
Tabbed by TWIGGy5

NOTE: Guitar 1 is acoustic, Guitar 2 is a synth. Guitar and Guitar 3 is an electric guitar
NOTE: Also for the chords shit, I’m just gonna tell you the chords and you can figure out 
      the strumming pattern. You’re good enough and I believe in you…………

Intro/Verse/Interlude (Gtr. 1)
E|-0-|        E|-0-|
B|-0-| hammer B|-1-|
G|-2-|   on   G|-2-|
D|-2-|        D|-2-|
A|-0-|        A|-0-|
   A          h Am

Verse P2 (Gtr. 1) (“We burn ourselves….”)
E|-3-|-0-|        E|-0-|
B|-3-|-0-| hammer B|-1-|
G|-0-|-2-|    on  G|-2-|
D|-0-|-2-|        D|-2-|
A|-2-|-0-|        A|-0-|
E|-3-|---|        E|---|
   G   A          h Am

Pre-Chorus
E|-0-|-0-|-1-|-0-|       E|---|
B|-1-|-1-|-1-|-1-|       B|-3-|
G|-0-|-2-|-2-|-0-|       G|-0-|
D|-2-|-3-|-3-|-2-|       D|-4-|
A|-3-|-3-|-3-|-3-| slide A|-5-|
E|---|-1-|-1-|---|       E|---|
   C   F?  F   C            D?
NOTE: For the F?, fret the low F note with your thumb

Interlude/Verse 2 (Gtr. 2)
E|-0------------|
B|-0------3--1--|
G|-2------------|
D|-2------------|
A|-0------------|

Verse P2 (Gtr. 2)
B|-3------2--4--2--|
G|-0---------------|

Pre-Chorus (Gtr. 2)
G|-----------0-----------------5p4-2-----5p4-2----|
D|-2------0---------------------------------------|
A|-----3------------------------------------------|

Pre-Chorus (Gtr. 2) (cont.)
G|-0------0----|
D|-2------4----|
A|-3------5----|

Chorus (Gtr. 1) Strum a lot
E|-0-|        E|-0-|
B|-0-| hammer B|-1-|
G|-2-|   on   G|-2-|
D|-2-|        D|-2-|
A|-0-|        A|-0-|
   A          h Am

Chorus (Gtr. 3)
E|-8-------8------8-----|
B|---10------10-----10--|
G|------9-------9-------|

Song Structure: -
Kids Being Beaten
Intro
Verse (“We have no future….”)
Verse P2
Pre-Chorus (“And I wish……”)
Interlude (Gtr. 1)/Interlude (Gtr. 2)
Verse (Gtr. 1)/Verse (Gtr. 2) (“Maggots put on….”)
Verse P2 (Gtr. 1)/Verse P2 (Gtr. 2) (“Sometimes I wish….”)
Pre-Chorus (Gtr. 1)/Pre-Chorus (Gtr. 2) (“And I wish that….”)
Chorus (Gtr. 1)/Chorus (Gtr. 2)
Chorus (Gtr. 1)/Chorus (Gtr. 2) (“Death it is………”)
Fade Out After A While

Nice, sad sad sad song. I’m not quite sure about 
that 2nd guitar, but hey!! Did the best I could. 
Any comments corrections or suggestions email me at toxic345x@yahoo.ca
===========Song: In the Shadow of the Valley of Death
Artist: Marilyn Manson
Album: Holy Wood
As tabbed by Joe Muggah	

Standard tuning
Guitar 1 is accoustic 

Chords used:
    Asus2   Am    G     F    C **  D
e-----0------0----3-----1----0--/--3-----------
B-----0--*h--1----3-----1----1--/--3-----------
G-----2------2----0-----2----0--/--0-----------
D-----2------2----0-----3----2--/--4-----------
A-----0------0----2-----3----3--/--5-----------
E-----------------3-----1----------------------
*  The Asus2 is followed by a hammer on Am
** The D is a slide up from the C

Intro:
Asus  h Am     Asus   h Am

Verse 1A (Guitar 1)
Asus2       h Am      Asus2                 h Am
 We have no future,  Heaven wasn't made for meeee.

G                  Asus2 h Am  G           Asus2 h Am    
 We burn ourselves to heeell, as fast as it can beee.

C             G              F 
 I wish that I could be the king 

C                /  D
 Then I'd know that I am not alone.
[ Tab from: http://www.guitartabs.cc/tabs/m/marilyn_manson/in_the_valley_of_the_shadow_of_death_tab.html ]
Verse 1B (Synthasizer arranged for Guitar 2)
e---------------------------------------------
B---------------------------------------------
G-----7-5-----7-5-----7-5-----7-5---7--2-4-2--
D---------------------------------5-----------
A--0--------0------0-------0------------------
E---------------------------------------------

(continued)
e---------------------------------------------
B---------------------------------------------
G--7--2-4-2---0-----------------------0---0---
D--5----------2---3-2---0---4-2-4-2---2---4---
A-------------3---------2-------------3---5---
E-----------------------3---------------------

Verse 2 Bass
G---------------------------------------------
D---------------------------------------------
A--0--12-10--0---10-8--0--8-7--8-7--5-7-5-----
E---------------------------------------------

Verse 2A (Guitar 1, strumming the chords)
Am   Asus2   h Am  
 Death is a policeman, Death is a priest.

Verse 2B (Guitar 2)
e--8------8------8-----8------8------8--------
B----10-----10-----10----10-----10-----10-----
G-------9------9------------9------9----------
D---------------------------------------------
A---------------------------------------------
E---------------------------------------------

Intro 
Verse 1A
Verse 1A, 1B
Verse 2A, 2B, Bass===========          Tabbed by : julian015@hotmail.com
          Artist    : Marilyn Manson
          Album     : Holy Wood (In The Shadow Of The Valley Of Death)
          Song      : Track #7 - In The Shadow of the Valley of Death
          
          Tuning: Standard (EADGBE)
          
          ~
          Chords are shown underneath the lyrics
          ~
          
          
          The D chord in this song is structured as follows 
          (Thanks to grayamprudence@btinternet.com for the correction)
          
          E|-3--|
          B|-3--|
          G|-0--| 
          D|-5--|
          A|-5--|
          E|----|
          
          
          
          Acoustic guitar intro : 
          
          [Verse 1]
          
          (no lyrics -------------    -----    ---  --  -> )
          Asus2           Amin           Asus2          Amin
          
          We have no future, heaven wasn't made for me
          Asus2      Amin    Asus2                  Amin
          
          We burn ourselves to hell, as fast as it can be
          G                    Amin  G                 Amin
          
          I wish that I could be a king
          C           D            F
          
          Then I'd know that I am not alone
          C          (slide) D (let chord ring)
          
          [Verse 2]
          
          Maggots put on shirts(?), and sell eachother shit
          Asus2          Amin         Asus2            Amin
          
          Sometimes I feel so worthless, sometimes I feel discarded
          G                   Amin       G                Amin
          
          I wish that I was good enough
          C           D          F
          
          Then I'd know that I am not alone
          C          (slide) D
          
          These chords are then played for the rest of the song 
          in 4/4 time.
          
          Amin
          G
          F
          Emin
          
          Lead parts played : (You can work out where they go ;)
          
          Part A
          (4 times)
          E|--------------|
          B|--------3-----| 
          G|-2----------5-| 
          D|--------------|
          
          Part B
          (2 times)
          E|-----------------|
          B|--3--------------|
          G|---------2--4--2-|
          D|-----------------|
          
          Part C
          (1 time)
          B|---------3-|
          G|-0---------|
          D|----3------|
          
          Part D
          (2 times)
          E|-------|
          B|-------|
          G|-4---2-|
          D|-------|
          
          Part C 1 time
Comments