Marilyn Manson - In The Shadow Of The Valley Of Death Chords & Tabs

 

In The Shadow Of The Valley Of Death Chords & Tabs

Marilyn Manson Chords & Tabs

Version: 1 Type: Tab 1 rating
1 star 2 stars 3 stars 4 stars 5 stars
comments

In The Shadow Of The Valley Of Death Tab

   
#----------------------------------PLEASE NOTE---------------------------------#
#This file is the author's own work and represents their interpretation of the #
#song. You may only use this file for private study, scholarship, or research. #
#------------------------------------------------------------------------------#

In The Shadow Of The Valley Of Death by Marilyn Manson
Guitarist: John 5 (Acoustic) and Twiggy Ramirez (Lead)
Album: Holy Wood (In The Shadow Of The Valley Of Death)
Dif.: 6
Tabbed by Twiggy 5

NOTE: I’m just gonna tell you the chords you figure out the rhythm by yourself, you’re not so dumb...... :-)

Here’s all the chords and their names
E|--0--|--X--|--0--|--0--|--3--|--1--|-----|-----|
B|--0--|--1--|--3--|--1--|--3--|--1--|-----|-----|
G|--2--|--2--|--2--|--0--|--0--|--2--|-----|-----|
D|--2--|--2--|--0--|--2--|--0--|--3--|--5--|--3--|
A|--0--|--0--|--X--|--3--|--2--|--3--|--5--|--3--|
E|--X--|--X--|--X--|--X--|--3--|--1--|--3--|--1--|
      A     Am  Dsus2  C      G     F

Intro
A     h Am  A     h Am


Verse 2 (Guitar 1) - Does Verse 1 over again but with different lyrics
[ Tab from: http://www.guitartabs.cc/tabs/m/marilyn_manson/in_the_shadow_of_the_valley_of_death_tab.html ]
Verse 2 (Guitar 2)
(I’m not quite sure if this is Pogo or Twiggy playing here... I’m pretty sure it’s Twiggy playing with some effect on his guitar)
E|--0------------|
B|--0------------|
G|--2-----7---5--|
D|--2------------|
A|--0------------|
Do that 2x before lyrics come in then 2x while lyrics are in then...

“Sometimes I feel....”
E|---0-------------------|
B|---3-------------------|
G|---2-------7--2--4--2--|
D|---0---5---------------|
Do that 2x then...

“I wish that....”
E|--0-----------------------|-----------------------|
B|--1-----------------------|-----------------------|
G|--0-----------0-----------|-----------------------|
D|--2---2----------3-2-0-2--|------4-2-4-----4-2-4--|
A|--3------3----------------|--2-----------2--------|
E|--------------------------|--3-----------3--------|

“Then I’d know that I am not alone”
E|-----0--------------------|
B|----1---------------------|
G|----0---------------------|
D|----2---------------------|
A|----3----------------5\3--|
E|---------------------3\1--|

(Then drums come in....)

Chorus (Guitar 1 just strums these chords)
Am        A     h Am

Chorus (Guitar 2)
E|--8---------8---------8----|
B|----10-------10--------10--|
G|--------9---------9--------|

Structre:
Intro
Verse 1
Verse 2 (Guitar 1)/Verse 2 (Guitar 2)
Chorus (Guitar 1)/Chorus (Guitar 2)

I’m pretty sure that I’m wrong on Verse 2 for Guitar 2.....
Such a dark and beautiful song..... It’s so full.... of emotions..... I love this song.... I love the whole fucking album..... It’s one of his best to date...
Any comments, corrections or suggestions email me at Toxic345x@yahoo.com
Comments