Marilyn Manson - In The Shadow Of The Valley Of Death Chords & Tabs

 

In The Shadow Of The Valley Of Death Chords & Tabs

Marilyn Manson Chords & Tabs

Version: 1 Type: Chords 0 ratings
1 star 2 stars 3 stars 4 stars 5 stars
comments

In The Shadow Of The Valley Of Death Chords

   
Play this four times
 e------0-------           
 B------0-------   
 G------2-------
 D------2-------
 A------0-------
 E------0-------
       Asus2

 e------0------- 
 B------1-------
 G------2-------
 D------2-------
 A------0-------
 E------0-------
       Amin

 Play this twice
 e------3------- 
 B------0-------
 G------0-------
 D------0-------
 A------2-------
 E------3-------
        G
[ Tab from: http://www.guitartabs.cc/tabs/m/marilyn_manson/in_the_shadow_of_the_valley_of_death_crd.html ]
 e------0------- 
 B------1-------
 G------2-------
 D------2-------
 A------0-------
 E------0-------
       Amin
 
 e------0------- 
 B------1-------
 G------0-------
 D------2-------
 A------3-------
 E------0-------
        C

 e------2------- 
 B------3-------
 G------2-------
 D------0-------
 A------0-------
 E------0-------
        D

 e------1------- 
 B------1-------
 G------2-------
 D------3-------
 A------0-------
 E------0-------
        F

 e------0------- 
 B------1-------
 G------0-------
 D------2-------
 A------3-------
 E------0-------
        C

 e------2------- 
 B------3-------
 G------2-------      Let D ring out
 D------0-------
 A------0-------
 E------0-------
        D

    Repeat the whole thing
Comments