Marilyn Manson - I Hate Chords & Tabs

 

I Hate Chords & Tabs

Marilyn Manson Chords & Tabs

Version: 1 Type: Tab 0 ratings
1 star 2 stars 3 stars 4 stars 5 stars
comments

I Hate Tab

   
Song: I Hate
Artist: Marilyn Manson
As tabbed by Joe Muggah

Dropped D and tuned down 1/2 step

Verse
eb------------------------------------------------------------
Bb------------------------------------------------------------
Gb------------------------------------------------------------
Db--0--0-0-0-0--3-0--------0--0-0--0-3-0----------------------
Ab--0--0-0-0-0--3-0--------0--0-0--0-3-0----------------------
Db--0--0-0-0-0--3-0--------0--0-0--0-3-0----------------------

Riff 1 (Synthasizer arranged for guitar)
eb------------------------------------------------------------
Bb---------------------6--------------------------------6-----
Gb--7---7--10-7------7---7-5-8-7--7-7-7--7-10-7------7---7-/\-
Db--x---x---x-x----7--------------x-x-x--x--x-x----7----------
Ab--5-5-5---8-5--5----------------5-5-5--5--8-5--5------------
Db----0-------------------------------------------------------

Riff 2 (Synthasizer arranged for guitar)
eb------------------------------------------------------------
Bb------------------------------------------------------------
Gb--7---7--10-7----------7-7-7--7-10-7------------------------
Db--x---x---x-x----------x-x-x--x--x-x------------------------
Ab--5-5-5---8-5----------5-5-5--5--8-5------------------------
Db----0-------------------------------------------------------
[ Tab from: http://www.guitartabs.cc/tabs/m/marilyn_manson/i_hate_tab.html ]
Chorus A (Guitar 1, each hit 2 times)
eb------------------------------------------------------------
Bb------------------------------------------------------------
Gb--7-7-7-7--5-5-5-5--4-4-4-4--3-3--2-2-----------------------
Db--x-x-x-x--x-x-x-x--x-x-x-x--x-x--x-x-----------------------
Ab--5-5-5-5--3-3-3-3--2-2-2-2--1-1--0-0-----------------------
Db------------------------------------------------------------
("I hate you more than...life itself...")

Chorus B (Guitar 2, each hit 2 times) 
eb------------------------------------------------------------
Bb------------------------------------------------------------
Gb--7-7-7-7--9-9-9-9--10-10-10-10--12-12-12-12----------------
Db--x-x-x-x--x-x-x-x---x--x--x--x---x--x--x--x----------------
Ab--5-5-5-5--7-7-7-7---8--8--8--8--10-10-10-10----------------
Db------------------------------------------------------------

Post-Chorus
eb------------------------------------------------------------
Bb------------------------------------------------------------
Gb------------------------------------------------------------
Db--0m-0m-0m-0m-0m-0m-0m-0m-0m------0m-0m-0m-----0m-0m-0m-----
Ab--0m-0m-0m-0m-0m-0m-0m-0m-0m--5^--0m-0m-0m-4^--0m-0m-0m-3^--
Db--0m-0m-0m-0m-0m-0m-0m-0m-0m------0m-0m-0m-----0m-0m-0m-----
("I hate...therefor I am...")


Verse, Riff 1
Verse, Riff 2
Chorus A
Chorus A, B
Post-chorus
Verse, Riff 2
Chorus A
Chorus A, B
Post-Chorus
Chorus A
Chorus A, B
Post-Chorus
Comments