Marilyn Manson - Great Big White World Chords & Tabs

 

Great Big White World Chords & Tabs

Marilyn Manson Chords & Tabs

Version: 3 Type: Tab 0 ratings
1 star 2 stars 3 stars 4 stars 5 stars
comments

Great Big White World Tab

Band: Marilyn Manson
Song:Great big white world
Album:Mechanical animal

^=Band
/=Slide

Intro (5x)

1)--------------------|
2)---4-3^^------4-3-5-|
3)5--------3-5--------|
4)--------------------|
5)--------------------|
6)--------------------|
In space, the stars, are no nearer...

Riff 1

1)--------------------------------------------------------------|
2)--------------------------------------------------------------|
3)5-8-7--5-8-7--57--4-8-7--4-8-7--4-8-7--4-7--5-8-7--5-8-7--5-7-|
(continued)
1)-------------------------------------|
2)-------------------------------------|
3)4-8-7--4-8-7--4-7--5-8-7--5-8-7--5-7-|
I'm not attached to your world...

"Solo" (4x)
[ Tab from: http://www.guitartabs.cc/tabs/m/marilyn_manson/great_big_white_world_tab_ver_3.html ]
1)-----------------------------8-|
2)-------------------------------|
3)5-5/8-10-10^-8/5-5/8-10-10^-8--|
4)-------------------------------|
5)-------------------------------|
6)-------------------------------|
Cuz it's a great big white world...

Riff 2

1)--------------------------------------------------------------------------|
2)--------------------------------------------------------------------------|
3)--------------------------------------------------------------------------|
4)3-3-3-3-3-3-3-3-3-6-6-6-6-6-6-6-6-10-10-10-10-10-10-10-10/8-8-8-8-8-8-8-8-|
5)3-3-3-3-3-3-3-3-3-6-6-6-6-6-6-6-6-10-10-10-10-10-10-10-10/8-8-8-8-8-8-8-8-|
6)1-1-1-1-1-1-1-1-1-4-4-4-4-4-4-4-4-8-8-8-8-8-8-8-8-8-8-8-8/6-6-6-6-6-6-6-6-|

(continued)

1)
2)
3)
4)6-6-6-6-6-6-6-6/5-5-5-5-5-5-5-5-|
5)6-6-6-6-6-6-6-6/5-5-5-5-5-5-5-5-|
6)4-4-4-4-4-4-4-4/3-3-3-3-3-3-3-3-|
My prescription is low...

That's all, you juste have to repeat it!!

For any comments
Tab by Petit_Agité
antichrist_1996@msn.com
Comments