Marilyn Manson - Great Big White World Chords & Tabs

 

Great Big White World Chords & Tabs

Marilyn Manson Chords & Tabs

Version: 1 Type: Tab 0 ratings
1 star 2 stars 3 stars 4 stars 5 stars
comments

Great Big White World Tab

Song: Great big white world
Artist: Marilyn Manson
Written by: Twiggy Ramirez,Madonna Wayne Gacy, Zim Zum
Lyrics by: Marilyn Manson
Album: Mechanical Animals
tabed by: Per "Pogo" Stenberg
fanta98@hotmail.com

This is the 2nd tab I do to this song.
the first one was for keyboard (The bigest tab
I have ever done). well... here it is for guitar...


Intro/Verse A  (Guitar)
This IS how John5 plays it (belive me, saw it live)!

---------------------------------
---------------------------------
----8-7^^^-3/5-8-7----3/5-8-7----
-10----------------10---------10-
---------------------------------
---------------------------------


Intro/Verse B (Keyboard)
(this are the light notes you hear in
the background)

---------------
---------------
-5-8-15---3-17-
---------------
---------------
---------------


Intro/Verse C (Bass)
(I don't even own a bass so do
get pissed if you not like it)

-------------
-------------
-------------
-6-1-7-1-6-1-


Break  (Keyboard)
(Pogo... who does't love him)
--------------------
-4-----6------------
-5--5--5--7--5---5--
-------------6---6--
--------------------
--------------------


Riff 1 A  (Guitar)
(This is how John5 plays it)
----------------------------------------------------------------
---4-3---4-3---4---4-3---4-3---4---4-3---4-3---4---4-3--4-3---4-
-5-----5-----5---4-----4-----4---3-----3-----3---2-----2----2---
----------------------------------------------------------------
----------------------------------------------------------------
----------------------------------------------------------------


Riff 1 B  (Keyboard)
(Pogo plays the samething)
----------------------------------------------------------------
---4-3---4-3---4---4-3---4-3---4---4-3---4-3---4---4-3--4-3---4-
-5-----5-----5---4-----4-----4---3-----3-----3---2-----2----2---
----------------------------------------------------------------
----------------------------------------------------------------
----------------------------------------------------------------


Riff 1 C  (Bass)
(Pleas Twiggy, even a baby can do this!)
--------------------
--------------------
--------------------
-8888877777666665555


Riff 2 A (Guitar)
(This how John5 plays it, insted of playing on the
5 fret on the G-string you can play on the 10 fret
on the D-string, but John5 plays on the 5 fret)

-------------------------------8
--------------------------------
-5-8-10-10^-8-5--5-8-10-10^-8---
--------------------------------
--------------------------------
--------------------------------


Riff 2 B  (Bass)
(I think this is correct)

------------------------------
------------------------------
------------------------------
-6-6/4-4\8-8-8-8-8-8-8-8-8-8-8


Chours 1 A (Guitar)
(Don't ask how many times you hit on the notes)
--------------
--------------
--------------
-3-6-10-8-6-5-
-3-6-10-8-6-5-
-1-4-8--6-4-3-


Chours 1 B (Bass)

-------------
-------------
-------------
-1-4-8-6-4-3-


Chours 1 C Keyboard

-------------------
-15-17-16-15-14-11-
-------------------
-------------------
-------------------
-------------------


Verse 2 A  (Guitar)

---------------------------------
---------------------------------
----8-7^^^-3/5-8-7----3/5-8-7----
-10----------------10---------10-
---------------------------------
---------------------------------

[ Tab from: http://www.guitartabs.cc/tabs/m/marilyn_manson/great_big_white_world_tab.html ]
Verse 2 B (Keyboard)

---------------
---------------
-5-8-15---3-17-
---------------
---------------
---------------


Verse 2 C (Bass)

-------------
-------------
-------------
-6-1-7-1-6-1-


Riff 2 A (Guitar)

-------------------------------8
--------------------------------
-5-8-10-10^-8-5--5-8-10-10^-8---
--------------------------------
--------------------------------
--------------------------------


Riff 2 B  (Bass)
(I think this is correct)

------------------------------
------------------------------
------------------------------
-6-6/4-4\8-8-8-8-8-8-8-8-8-8-8


Chours 2 A

------------------------
------------------------
------------------------
-3-6-10-8--3-6-10-8-6-5-
-3-6-10-8--3-6-10-8-6-5-
-1-4-8--6--1-4-8--6-4-3-


Chours 2 B (Bass)

---------------------
---------------------
---------------------
-1-4-8-6--1-4-8-6-4-3 


Chours 2 C (Keyboard)

-------------------------------
15-17-16-15--15-17-16-15-14-11-
-------------------------------
-------------------------------
-------------------------------
-------------------------------


Riff 1 A  (Guitar)

----------------------------------------------------------------
---4-3---4-3---4---4-3---4-3---4---4-3---4-3---4---4-3--4-3---4-
-5-----5-----5---4-----4-----4---3-----3-----3---2-----2----2---
----------------------------------------------------------------
----------------------------------------------------------------
----------------------------------------------------------------

Chours 3 A (Keyboard solo)

-13^13^13^13^13^13^16^16^16^16^16^16^17^17^17^17^17^17^
-------------------------------------------------------
-------------------------------------------------------
-------------------------------------------------------
-------------------------------------------------------
-------------------------------------------------------


-17^19^19^19^21^21^21^-
-----------------------
-----------------------
-----------------------
-----------------------
-----------------------


-13^13^13^13^13^13^16^16^16^16^16^16^17^17^17^17^17^17^
-------------------------------------------------------
-------------------------------------------------------
-------------------------------------------------------
-------------------------------------------------------
-------------------------------------------------------


-17^19^19^19^21^21^21^----21----21----21----21-
-----------------------19----19----19----19----
-----------------------------------------------
-----------------------------------------------
-----------------------------------------------
-----------------------------------------------


Chours 3 B

------------------------
------------------------
------------------------
-3-6-10-8--3-6-10-8-6-5-
-3-6-10-8--3-6-10-8-6-5-
-1-4-8--6--1-4-8--6-4-3-


Chours 3 C (Bass)

---------------------
---------------------
---------------------
-1-4-8-6--1-4-8-6-4-3 


Chours 3 D (Keyboard)

-------------------------------
15-17-16-15--15-17-16-15-14-11-
-------------------------------
-------------------------------
-------------------------------
-------------------------------

Chours 3 E (Guitar)

-----------------------
-----------------------
-12^-10--12^-10--12^-10
-----------------------
-----------------------
-----------------------

OH YEAH!
fanta98@hotmail.com





Comments