Marilyn Manson - God Eat God Chords & Tabs

 

God Eat God Chords & Tabs

Marilyn Manson Chords & Tabs

Version: 3 Type: Tab 0 ratings
1 star 2 stars 3 stars 4 stars 5 stars
comments

God Eat God Tab

God Eat God

Marilyn Manson 

Tabed by: HeadlessClowns65
completely 100% correct ^^

intro/ main riff ( 1A )
e----------------------------------------------------
b----------------------------------------------------
g-10--7--10--7--9--7--9--7----6-7-6---6--7--6--------
d--------------------------9--------7---------------- 
a----------------------------------------------------
e---------------------------------------------------- 


chorus (1B)
e----------------------------------------------------
b----------------------------------------------------
g---4--6--7------------------------------------------
d---4--6--7------------------------------------------ 
a---2--3--5------------------------------------------
e----------------------------------------------------


bridge thats played during chorus ( second guitar)(2A)
e----------------------------------------------------
b----------------------------------------------------
g----6------7------7-4-7-6---------------------------
d-9------9------------------------------------------- 
a----------------------------------------------------
e---------------------------------------------------- 
[ Tab from: http://www.guitartabs.cc/tabs/m/marilyn_manson/god_eat_god_tab_ver_3.html ]
when coming back to the main riff it starts off different (1C)
e----------------------------------------------------
b----------------------------------------------------
g-10--7--10--9r--------6-7-6---6--7--6---------------
d---------------------9-------7----------------------
a----------------------------------------------------
e----------------------------------------------------

then back into the main riff (1A)
e----------------------------------------------------
b----------------------------------------------------
g-10--7--10--7--9--7--9--7----6-7-6---6--7--6--------
d--------------------------9--------7----------------
a----------------------------------------------------
e---------------------------------------------------- 

outro (1D)
e----------------------------------------------------
b----------------------------------------------------
g-10--7--10--9r--------------------------------------
d----------------------------------------------------
a----------------------------------------------------
e---------------------------------------------------- 

SONG STRUCTURE
(1A) x6
(1B) x4
(2A 2nd guitar)comes in half way through chorus so 2 times dumb-dumb
(1C)x1
(1A)x4
(1B)and(2A) come in at same time (x4 by the way)
(1D)x1 the end
Comments