Marilyn Manson - God Eat God Chords & Tabs

 

God Eat God Chords & Tabs

Marilyn Manson Chords & Tabs

Version: 1 Type: Tab 0 ratings
1 star 2 stars 3 stars 4 stars 5 stars
comments

God Eat God Tab

   
Godeatgod by Marilyn Manson
Guitarist: John5 + Twiggy Ramirez + Bon Harris
Album: Holy Wood (In The Shadow Of The Valley Of Death)
Dif.: 6
Tabbed by TWIGGy5

NOTE: John5 is Gtr. 1, Twiggy Gtr. 2 and Bon is Gtr. 3

Intro/Verse/Interlude (Gtr. 1)
B|-6---6---5---5-----0-2-3-2---2-3-2--|
G|---7---7---7---7-----------2--------|

Chorus (Bass)
A|-2-2-2-2-4-4-4-4-5-5-5-5-5-5-5-5-|

Chorus (Gtr. 2) (Clean and Palm mute all)
A|-2-2-2-2-4-4-4-4-5-5-5-5-5-5-5-5-|
E|-0-0-0-0-0-0-0-0-0-0-0-0-0-0-0-0-|

Chorus (Gtr. 3)
G|--4-6-6-7----7-4-7-6--|

Interlude (Gtr. 2)
B|----6-5-----------------|
G|--7---------------------|

Interlude/End(Gtr. 3) (w/ delay)
B|-----------------------------6/15-|

Chorus 2 (Gtr. 1 + 3) (w/ dist.)
D|-4-4-4-4-6-6-6-6-7-7-7-7-7-7-7-7-|
A|-4-4-4-4-6-6-6-6-7-7-7-7-7-7-7-7-|
E|-2-2-2-2-4-4-4-4-5-5-5-5-5-5-5-5-|
  PM------------------------------|

Song Structure:
Fireworks
Gun Being Cocked
Intro
Verse (“Dear god…..”)
Chorus (Bass)/Chorus (Gtr. 2) (“Before the bullets……”)
Chorus (Bass)/Chorus (Gtr. 2)/Chorus (Gtr. 3) (“The only……”)
Interlude (Gtr. 1)/Interlude (Gtr. 2)/Interlude (Gtr. 3)
Verse (“Dear god the……”)
Chorus (Gtr. 1 + 3)/Chorus (bass)/Chorus (Gtr. 3)
Interlude (Gtr. 2)
End (Gtr. 3)

During interlude gtr. 3, it comes near the end. Nice little song, must say. 
Yah, you know if you have any questions or comments or even corrections please 
email me at toxic345x@yahoo.ca, I love to hear from my fans…………………… I guess
===========Artist - Marilyn Manson
Song - GodEatGod
Album - Holywood
Guitarist - John Q
Tabbed by - Hippie Killer
Low E tuned to D

e--1--1--0--0----------------------
b---3--3--3--3-0-2-3-2---2-3-2-----
g----------------------2-----------
d----------------------------------
a----------------------------------
D----------------------------------

e----------------------------------
b----------------------------------
g----------------------------------
d----------------------------------
a--2-2-2-2-4-4-4-4-5-5-5-5-5-5-5-5-
D--0-0-0-0-0-0-0-0-0-0-0-0-0-0-0-0-

e----------------------------------
b----------------------------------
g--4-6-7-7-7-4-7-6-4-6-7-7-7-4-7-6-
d----------------------------------
a----------------------------------
D----------------------------------

Listen to the song for the order

Email me if I fucked up or if I did good

fishook513@hotmail.com

Later
[ Tab from: http://www.guitartabs.cc/tabs/m/marilyn_manson/god_eat_god_tab.html ]
†Jeff†
===========
          Tabbed by : julian015@hotmail.com
          Artist    : Marilyn Manson
          Album     : Holy Wood (In The Shadow Of The Valley Of Death)
          Song      : Track #1 - GodEatGod
          
          Tuning: Standard (EADGBE)
          
          Intro : 
          
          E|-1---1---0---0---|-----------------|
          B|---3---3---3---3-|-0-2-3-2---2-3-2-|
          G|-----------------|---------2-------|
          D|-0---0---0---0---|-----------------|
          
          "Chorus" (Bass plays this)
          
          A|-2-2-2-2-4-4-4-4-5-5-5-5-0-0-0-0|
          E|--------------------------------|
          
          "Chorus" (Guitar part in the background is something like this)
          
          E|---------|---------|
          B|-0-2-2-4-|-3-3-2---|
          G|---------|-------2-|
          
          Guitar #2 (This is played loudly over the intro riff the 2nd time)
          
          E|-1---1--0-| - let the 0 ring
          B|---3------| 
          G|----------|
          
          "Before the bullet....." You can play this and it sounds fine
          (Very crunchy/heavy distortion)
          
          B|---------------------------------|
          G|-4-4-4-4-6-6-6-6-7-7-7-7-7-7-7-7-|
          D|-4-4-4-4-6-6-6-6-7-7-7-7-7-7-7-7-|
          A|-2-2-2-2-4-4-4-4-5-5-5-5-5-5-5-5-|
          
          Ending :
          
          D|->-
          A|->-      <- just slide your hand on the strings ;) 
          E|->-
          


===========

Song:GodeatGod
Album:Holy Wood(In the Shadow of the Valley of Death)
Artist:MAR1LYN MAN5ON
TAbbed:Jose O. HErnandez Loyola


* - Means that you gonna play it more silent like an echo in the keyboard

Intro & Verse (keyboard or a synth pedal in tha guitar)

E|-------------|-----------------|
B|-----**---*--|-0-2-3-2---2-3-2-|
G|--10-10-9-9--|---------2-------|
D|-------------|-----------------|
A|-------------|-----------------|
E|-------------|-----------------|


Chorus (Bass plays this)

E|--------------------------------|
B|--------------------------------|
G|--------------------------------|
D|--------------------------------|
A|-2-2-2-2-4-4-4-4-5-5-5-5-0-0-0-0|
E|--------------------------------|
Before the bullets....

Chorus (Guitar or Keyboard in the background)

E|---------|---------|
B|-0-2-2-4-|-3-3-2---|
G|---------|-------2-|
The only ........

2nd Chorus

E|---------------------------------|
B|---------------------------------|
G|---------------------------------|
D|-4-4-4-4-6-6-6-6-7-7-7-7-7-7-7-7-|
A|-4-4-4-4-6-6-6-6-7-7-7-7-7-7-7-7-|
E|-2-2-2-2-4-4-4-4-5-5-5-5-5-5-5-5-|
Befor the bullets....

End

E|------------------|
B|-----**-----------|
G|--10-10-9~~~~...--|
D|------------------|
A|------------------|
E|------------------|

Intro & Verse - x 6
Chorus - x 4
Chorus whit the guitar x -4
Verse - x8
2nd Chorus  and the guitar on the 1st x8
End - x1
Comments