Marilyn Manson - Get Your Gunn Chords & Tabs

 

Get Your Gunn Chords & Tabs

Marilyn Manson Chords & Tabs

Version: 3 Type: Tab 0 ratings
1 star 2 stars 3 stars 4 stars 5 stars
comments

Get Your Gunn Tab

Artist- Marylin Manson
Song- Get Your Gunn
Album- Portrait of an American Family (Track 10)running time: approximately 3:18

Standard Tuning

/=slide up
\=slide down

This is a really easy song and I've tabbed out every single guitar part to it so it is 
easy to follow. I know I'm pretty close to 100% correct.

Intro
"Goddamn your righteous hand"
e|---------------------------------------------------|
b|---------------------------------------------------|
g|---------------------------------------------------|
D|---------------------------------------------------|
A|---------7-----------------------7-------------5---|
E|12//-0-----0---7-6-----3-----0-----0---7-6---------|

|----------------------------------------------------|
|----------------------------------------------------|
|----------------------------------------------------|
|----------------------------------------------------|
|----7-----------------------7-------------5---------|
|0-----0---7-6-----3-----0-----0---7-6---------------|

Verse

|----------------------------------------------------|
|----------------------------------------------------|
|----------------------------------------------------| I eat innocent meat
|----------------------------------------------------| The house wife i will beat
|----------------------------------------------------|
|----------------------------------------------------|

|-----------------------------------------------------|
|-----------------------------------------------------|
|-----------------------------------------------------| The pro-life i will kill
|-----------------------------------------------------| What you won't do I will
|-----------------------------------------------------|
|-----------------------------------------------------|

|----------------------------------------------------|
|----------------------------------------------------|
|----------------------------------------------------| I bash my self to sleep
|-----2-----2-----2----------2-----2-----2-----------| What you sow I will reap
|-----2-----2-----2----------2-----2-----2-----------|
|12//-0-----0-----0-------7/-0-----0-----0-------7/--|

|----------------------------------------------------|
|----------------------------------------------------|
|----------------------------------------------------| I scar myself you see
|-----2-----2-----2----------2-----2-----2-----------| I wish i wasn't me
|-----2-----2-----2----------2-----2-----2-----------|
|-----0-----0-----0-------7/-0-----0-----0-------7/--|

|----------------------------------------------------|
|----------------------------------------------------|
|----------------------------------------------------| I am the little stick
|-----2-----2-----2----------2-----2-----2-----------| You stir me into shit
|-----2-----2-----2----------2-----2-----2-----------|
|-----0-----0-----0-------7/-0-----0-----0-------7/--|

|----------------------------------------------------|
|----------------------------------------------------|
|----------------------------------------------------| I hate therfore i am
|-----2-----2-----2----------2-----2-----2-----------| Goddamn your righteous hand
|-----2-----2-----2----------2-----2-----2-----------|
|-----0-----0-----0-------7/-0-----0-----0-------7/--|

|----------------------------------------------------|
|----------------------------------------------------|
|----------------------------------------------------| Goddamn (ooh, Lord)
|-----2-----2-----2----------2-----2-----2-----------| Goddamn (ooh, Lord)
|-----2-----2-----2----------2-----2-----2-----------|
|-----0-----0-----0-------7/-0-----0-----0-------7/--|

|----------------------------------------------------|
|----------------------------------------------------|
|----------------------------------------------------| Goddamn (ooh, Lord)
|-----2-----2-----2----------2-----2-----2-----------| Goddamn (ooh, Lord)
|-----2-----2-----2----------2-----2-----2--------8--|
|-----0-----0-----0-------7/-0-----0-----0--------6--|

Chorus

|-----------------------------------------------------------------|
|-----------------------------------------------------------------|
|9-9-9------------------------------------------------------------| Pseudo-morals work real well
|9-9-9-8-8-8-5-5-5-5-5-5-6---6---2-2-2-8-8-8-3-----3-3-3-5---5----| On the talk shows for the weak
|7-7-7-8-8-8-5-5-5-5-5-5-6---6---2-2-2-8-8-8-3-----3-3-3-5---5----|
|------6-6-6-3-3-3-3-3-3-4---4---0-0-0-6-6-6-1-----1-1-1-3---3----|

|----------------------------------------------------------------|
|----------------------------------------------------------------|
|9-9-9-----------------------------------------------------------| But your selective judgements
|9-9-9-8-8-8-5-5-5-5-5-5-6---6---2-2-2-8-8-8-3-----3-3-3-5---5---| And good guy badges
|7-7-7-8-8-8-5-5-5-5-5-5-6---6---2-2-2-8-8-8-3-----3-3-3-5---5---| Don't mean a f*** to me
|------6-6-6-3-3-3-3-3-3-4---4---0-0-0-6-6-6-1-----1-1-1-3---3---|

Verse

|----------------------------------------------------|
|----------------------------------------------------|
|----------------------------------------------------|
|-----2-----2-----2----------2-----2-----2-----------|
|-----2-----2-----2----------2-----2-----2-----------|
|-----0-----0-----0-------7/-0-----0-----0-------7/--|

|----------------------------------------------------|
|----------------------------------------------------|
|----------------------------------------------------|
|-----2-----2-----2----------2-----2-----2-----------|
|-----2-----2-----2----------2-----2-----2-----------|
|-----0-----0-----0-------7/-0-----0-----0-------7/--|

|----------------------------------------------------|
|----------------------------------------------------|
|----------------------------------------------------| I throw a little fit
|-----2----------------------------------------------| i slit my teenage wrists
|-----2----------------------------------------------|
|-----0----------------------------------------------|

|----------------------------------------------------|
|----------------------------------------------------|
|----------------------------------------------------| The most that i can learn
|----------------------------------------------------| Is in record that you burn
|----------------------------------------------------|
|----------------------------------------------------|

|----------------------------------------------------|
|----------------------------------------------------|
|----------------------------------------------------| Get Your Gunn
|-----2-----2-----2----------2-----2-----2-----------| Get Your Gunn
|-----2-----2-----2----------2-----2-----2-----------|
|-----0-----0-----0-------7/-0-----0-----0-------7/--|
[ Tab from: http://www.guitartabs.cc/tabs/m/marilyn_manson/get_your_gunn_tab_ver_3.html ]
|----------------------------------------------------|
|----------------------------------------------------|
|----------------------------------------------------| Get Your Gunn
|-----2-----2-----2----------2-----2-----2-----------| Get Your Guuuuunn
|-----2-----2-----2----------2-----2-----2--------6--|
|-----0-----0-----0-------7/-0-----0-----0--------8--|

Chorus

|-----------------------------------------------------------------|
|-----------------------------------------------------------------|
|9-9-9------------------------------------------------------------| Pseudo-morals work real well
|9-9-9-8-8-8-5-5-5-5-5-5-6---6---2-2-2-8-8-8-3-----3-3-3-5---5----| On the talk shows for the weak
|7-7-7-8-8-8-5-5-5-5-5-5-6---6---2-2-2-8-8-8-3-----3-3-3-5---5----|
|------6-6-6-3-3-3-3-3-3-4---4---0-0-0-6-6-6-1-----1-1-1-3---3----|

|----------------------------------------------------------------|
|----------------------------------------------------------------|
|9-9-9-----------------------------------------------------------| But your selective judgements
|9-9-9-8-8-8-5-5-5-5-5-5-6---6---2-2-2-8-8-8-3-----3-3-3-5---5---| And good guy badges
|7-7-7-8-8-8-5-5-5-5-5-5-6---6---2-2-2-8-8-8-3-----3-3-3-5---5---| Don't mean a f*** to me
|------6-6-6-3-3-3-3-3-3-4---4---0-0-0-6-6-6-1-----1-1-1-3---3---|

|-----------------------------------------------------------------|
|-----------------------------------------------------------------|
|9-9-9------------------------------------------------------------| Pseudo-morals work real well
|9-9-9-8-8-8-5-5-5-5-5-5-6---6---2-2-2-8-8-8-3-----3-3-3-5---5----| On the talk shows for the weak
|7-7-7-8-8-8-5-5-5-5-5-5-6---6---2-2-2-8-8-8-3-----3-3-3-5---5----|
|------6-6-6-3-3-3-3-3-3-4---4---0-0-0-6-6-6-1-----1-1-1-3---3----|

|----------------------------------------------------------------|
|----------------------------------------------------------------|
|9-9-9-----------------------------------------------------------| But your selective judgements
|9-9-9-8-8-8-5-5-5-5-5-5-6---6---2-2-2-8-8-8-3-----3-3-3-5---5---| And good guy badges
|7-7-7-8-8-8-5-5-5-5-5-5-6---6---2-2-2-8-8-8-3-----3-3-3-5---5---| Don't mean a f*** to me
|------6-6-6-3-3-3-3-3-3-4---4---0-0-0-6-6-6-1-----1-1-1-3---3---|

Bridge

|----------------------------------------------------|
|----------------------------------------------------|
|----------------------------------------------------|
|-----2-----2-----2----------2-----2-----2-----------|
|-----2-----2-----2----------2-----2-----2-----------|
|-----0-----0-----0-------7/-0-----0-----0-------7/--|

|----------------------------------------------------|
|----------------------------------------------------|
|----------------------------------------------------|
|-----2-----2-----2----------2-----2-----2-----------|
|-----2-----2-----2----------2-----2-----2-----------|
|-----0-----0-----0-------7/-0-----0-----0-------7/--|

Verse

|----------------------------------------------------|
|----------------------------------------------------|
|----------------------------------------------------| I am your VHS
|----------------------------------------------------| Record me with your fist
|----------------------------------------------------|
|----------------------------------------------------|

|----------------------------------------------------|
|----------------------------------------------------|
|----------------------------------------------------| You want me to save the world
|----------------------------------------------------| I'm just a little girl
|----------------------------------------------------|
|----------------------------------------------------|

|----------------------------------------------------|
|----------------------------------------------------|
|----------------------------------------------------|
|----------------------------------------------------|
|----------------------------------------------------|
|----------------------------------------------------|

|----------------------------------------------------|
|----------------------------------------------------|
|----------------------------------------------------|
|----------------------------------------------------|
|----------------------------------------------------|
|----------------------------------------------------|

Chorus

|-----------------------------------------------------------------|
|-----------------------------------------------------------------|
|9-9-9------------------------------------------------------------| Pseudo-morals work real well
|9-9-9-8-8-8-5-5-5-5-5-5-6---6---2-2-2-8-8-8-3-----3-3-3-5---5----| On the talk shows for the weak
|7-7-7-8-8-8-5-5-5-5-5-5-6---6---2-2-2-8-8-8-3-----3-3-3-5---5----|
|------6-6-6-3-3-3-3-3-3-4---4---0-0-0-6-6-6-1-----1-1-1-3---3----|

|----------------------------------------------------------------|
|----------------------------------------------------------------|
|9-9-9-----------------------------------------------------------| But your selective judgements
|9-9-9-8-8-8-5-5-5-5-5-5-6---6---2-2-2-8-8-8-3-----3-3-3-5---5---| And good guy badges
|7-7-7-8-8-8-5-5-5-5-5-5-6---6---2-2-2-8-8-8-3-----3-3-3-5---5---| Don't mean a f*** to me
|------6-6-6-3-3-3-3-3-3-4---4---0-0-0-6-6-6-1-----1-1-1-3---3---|

|-----------------------------------------------------------------|
|-----------------------------------------------------------------|
|9-9-9------------------------------------------------------------| Pseudo-morals work real well
|9-9-9-8-8-8-5-5-5-5-5-5-6---6---2-2-2-8-8-8-3-----3-3-3-5---5----| On the talk shows for the weak
|7-7-7-8-8-8-5-5-5-5-5-5-6---6---2-2-2-8-8-8-3-----3-3-3-5---5----|
|------6-6-6-3-3-3-3-3-3-4---4---0-0-0-6-6-6-1-----1-1-1-3---3----|

|----------------------------------------------------------------|
|----------------------------------------------------------------|
|9-9-9-----------------------------------------------------------| But your selective judgements
|9-9-9-8-8-8-5-5-5-5-5-5-6---6---2-2-2-8-8-8-3-----3-3-3-5---5---| And good guy badges
|7-7-7-8-8-8-5-5-5-5-5-5-6---6---2-2-2-8-8-8-3-----3-3-3-5---5---| Don't mean a f*** to me
|------6-6-6-3-3-3-3-3-3-4---4---0-0-0-6-6-6-1-----1-1-1-3---3---|

Outro

|----------------------------------------------------|
|----------------------------------------------------|
|----------------------------------------------------| Get Your Gunn
|-----2-----2-----2----------2-----2-----2-----------| Get Your Gunn
|-----2-----2-----2----------2-----2-----2-----------|
|-----0-----0-----0-------7/-0-----0-----0-------7/--|
|----------------------------------------------------|
|----------------------------------------------------|
|----------------------------------------------------| Get Your Gunn
|-----2-----2-----2----------2-----2-----2-----------| Get Your Gunn
|-----2-----2-----2----------2-----2-----2-----------|
|-----0-----0-----0-------7/-0-----0-----0-------7/--| GET!

There it is, the whole song there are only really 3 main guitar parts to it. Yeah 
Manson rocks! Enjoy
HARDKOR
Comments