Marilyn Manson - Get Your Gunn Chords & Tabs

 

Get Your Gunn Chords & Tabs

Marilyn Manson Chords & Tabs

Version: 2 Type: Tab 0 ratings
1 star 2 stars 3 stars 4 stars 5 stars
comments

Get Your Gunn Tab

Get Your Gunn as performed by Marilyn Manson on their 1994 album "Potrait
 of an American family"

Tabbed by Arjan (arjanbarman@hotmail.com)

Normal Tuning (EADGBe)

Riff 1:
e|------------------------------------------|
B|------------------------------------------|
G|------------------------------------------|
D|------------------------------------------|
A|----------7----------------7--------------|
E|--12\---0---0--7-6---3---0---0--7-6---10--|
[ Tab from: http://www.guitartabs.cc/tabs/m/marilyn_manson/get_your_gunn_tab_ver_2.html ]
Riff 2:
e|----------------|
B|----------------|
G|----------------|
D|-------2--2--2--|
A|-------2--2--2--|
E|--7\---0--0--0--|

Riff 3: Chorus
e|---------------------------------------------------------------------|
B|---------------------------------------------------------------------|
G|--9-9-9-------------------------------------------10-10-10-10-12-12--|
D|--9-9-9-8-8-8-5-5-5-5-5-5-6-6-6-5-5-5-2-2-2-4-4-4-10-10-10-10-12-12--|
A|--7-7-7-8-8-8-5-5-5-3-5-5-6-6-6-5-5-5-2-2-2-4-4-4--8--8--8--8-10-10--|
E|--------6-6-6-3-3-3-3-3-3-4-4-4-3-3-3-0-0-0-2-2-2--------------------|
Comments