Marilyn Manson - Fundamentally Loathsome Chords & Tabs

 

Fundamentally Loathsome Chords & Tabs

Marilyn Manson Chords & Tabs

Version: 2 Type: Bass Tab 0 ratings
1 star 2 stars 3 stars 4 stars 5 stars
comments

Fundamentally Loathsome Bass Tab

   
Marilyn Manson
Fundamentally Loathsome
Mechanical Animals
Tabbed by "ONLY BASS!!!"


Standard Tuning (E,A,D,G)
Listen to the song to follow rythm and times.


Verse 1 (0:00 - 0:33)

G|-------------------------------------------------|
D|-------------------------------------------------|   x2
A|-------------------------------------------------|
E|-5----5----5----5----4-3----3----3----0-3-4-5----|

G|------------------------------------------------------------------------|
D|------------------------------------------------------------------------|
A|------------------------------------------------------------------------|
E|-5----5----5----5----4-3----3-----3-3----3-2-2----2-1-1-0---0---0---12\-|


Chorus 1 (0:33 - 1:05)

G|----------------------------------------------------------|
D|----------------------------------------------------------|  x2
A|-------------------9-----------5---------------5--5\------|
E|0-3---3----3--3/7----7--7---3-----2--2--0--0----------3---|


Verse 2 (1:06 - 1:39)

G|-------------------------------------------------|
D|-------------------------------------------------|   x2
A|-------------------------------------------------|
E|-5----5----5----5----4-3----3----3----0-3-4-5----|

G|------------------------------------------------------------------------|
D|------------------------------------------------------------------------|
A|------------------------------------------------------------------------|
E|-5----5----5----5----4-3----3-----3-3----3-2-2----2-1-1-0---0---0---12\-|


Chorus (1:39 - 2:12)
[ Tab from: http://www.guitartabs.cc/tabs/m/marilyn_manson/fundamentally_loathsome_btab_ver_2.html ]
G|----------------------------------------------------------|
D|----------------------------------------------------------|  x2
A|-------------------9-----------5---------------5--5\------|
E|0-3---3----3--3/7----7--7---3-----2--2--0--0----------3---|


Bridge 1 (2:12 - 2:41)

G|-------------------------------------------------|
D|-------------------------------------------------|   x2
A|-------------------------------------------------|
E|-5----5----5----5----4-3----3----3----0-3-4-5----|

G|------------------------------------------------------------------------|
D|------------------------------------------------------------------------|
A|------------------------------------------------------------------------|
E|-5----5----5----5----4-3----3-----3-3----3-2-2----2-1-1-0---0---0---12\-|


Bridge 2 (2:41 - 3:10)

G|-----------------------      |--------------------------------|
D|----------------------- x1   |--------------------------------| x3
A|-----------------------      |-10------9-------7-------2-3-2--|
E|0-0-0-0-0-0-0-0-0-0-0-0      |----0-0-----0-0-----0-0---------|

G|----------------------------------|
D|----------------------------------|
A|-10------9-------7-------7--5-----|
E|----0-0-----0-0-----0-0--------7--|

G|------------------------------------------------|
D|------------------------------------------1-1-1-|
A|-2-2-2-2-2-2------------3-3-3-3-3-3-2-2-2-------|
E|-------------2-2-2-2-2-2------------------------|


OUTRO (3:10 - 4:47) Shoot my self to love you
                    If I loved myself I'd be shooting you

G|-------------------------|
D|-------------------------| x Many times till end. XD
A|--------------1--1--0----|
E|--0--0--3--3-----------3-|
Comments