Marilyn Manson - Dried Up Tied And Dead To The World Chords & Tabs

 

Dried Up Tied And Dead To The World Chords & Tabs

Marilyn Manson Chords & Tabs

Version: 2 Type: Bass Tab 0 ratings
1 star 2 stars 3 stars 4 stars 5 stars
comments

Dried Up Tied And Dead To The World Bass Tab

Marilyn Manson
Dried Up Tied and Dead to the World 

Tabbed by A.Salverda

KEY:
r = rest
/ = slide up to note

Riff 1

G|-------------------------------|
D|-------------------------------|
A|----------7-----------5/7-7-7--|
E|--0-0-r-0---0---0-r-0----------|

Riff 2
[ Tab from: http://www.guitartabs.cc/tabs/m/marilyn_manson/dried_up_tied_and_dead_to_the_world_btab_ver_2.html ]
G|-------------------------------|
D|--0---5------------------------|
A|------------2-------3---0------|
E|----------------------------1--|

Riff 3

G|-------------------------|
D|-------------------------|
A|-------------------------|
E|--0-0---0-0---0-0-----0--|

Order of Riffs:

Riff 1 (8x)
Riff 1 (8x)
Riff 1-2-1-2 (Chorus)
Riff 1 (8x)
Riff 1-2-1-2 (Chorus)
Riff 1-2 (4x)
Riff 3 (16x)

Comments