Marilyn Manson - Down In The Park Chords & Tabs

 

Down In The Park Chords & Tabs

Marilyn Manson Chords & Tabs

Version: 3 Type: Bass Tab 0 ratings
1 star 2 stars 3 stars 4 stars 5 stars
comments

Down In The Park Bass Tab

Down in the Park - Marilyn Manson

By: Jon Craven (i_apathy@hotmail.com)
For questions, comments, feedback, an outline of the timing, write the above
address.

Notes:
  -It is hard to distinguish the bass from the synth bass, so I have written the
synth bass as bass.
  -Played with a pick.
  -Twiggy uses a distortion of some sort but I'm not sure what kind it is.

(4/4)(80 bpm)
Standard tuning

* - note held for an eighth beat
/ - slide up
|-R-| - rest for one measure

Intro (verse 2): (x2)(0:33)
|----------------|----------------|----------------|----------------|
|----------------|----------------|----------------|----------------|
|3-*-*-*-5-*-*-*-|1-*-*-*-------/-|3-*-*-*-5-*-*-*-|----------------|
|----------------|--------1-*-*---|----------------|5-*-*-*-*-*-*-*-|

Verse 1: (x2)(0:57)
|----------------|----------------|----------------|----------------|
|----------------|----------------|----------------|----------------|
|3333333355555555|11111111--------|3333333355555555|----------------|
|----------------|--------11111111|----------------|5555555555555555|
[ Tab from: http://www.guitartabs.cc/tabs/m/marilyn_manson/down_in_the_park_btab_ver_3.html ]
Chorus (outro): (1:21)
|----------------|----------------|----------------|----------------|
|----------------|----------------|----------------|----------------|
|----------------|----------------|----------------|----------------|
|5-*-*-*-*-*-*-*-|3-*-*-*-*-*-*-*-|1-*-*-*-*-*-*-*-|1-*-*-*-*-*-*-*-|

Verse 2 (x2)(has verse 1 playing under it)
Chorus (x2)

Bridge: (2:21)(has verse 1 playing under it)
(palm muted-------------------------------------------------------->)
|----------------|----------------|----------------|----------------|
|----------------|----------------|----------------|----------------|
|3-3-3-3-5-5-5-5-|1-1-1-1---------|3-3-3-3-5-5-5-5-|----------------|
|----------------|--------1-1-1-1-|----------------|5-5-5-5-5-5-5-5-|

|----------------|----------------|----------------|----------------|
|----------------|----------------|----------------|----------------|
|3-*-*-*-5-*-*-*-|1-*-*-*-------/-|3-*-*-*-5-*-*-*-|----------------|
|----------------|--------1-*-*---|----------------|5-*-*-*-*-*-*-*-|

Verse 3: (2:45)
|---|---|---|---|----------------|----------------|----------------|
|---|---|---|---|----------------|----------------|----------------|
|---|---|---|---|3-*-*-*-5-*-*-*-|1-*-*-*-------/-|3-*-*-*-5-*-*-*-|
|-R-|-R-|-R-|-R-|----------------|--------1-*-*---|----------------|

|----------------|
|----------------|
|----------------|
|5-*-*-*-*-*-*-*-|

Chorus (x2)
Outro (x4)
Rest till end
Comments