Marilyn Manson - Dope Hat Chords & Tabs

 

Dope Hat Chords & Tabs

Marilyn Manson Chords & Tabs

Version: 2 Type: Tab 0 ratings
1 star 2 stars 3 stars 4 stars 5 stars
comments

Dope Hat Tab

   
ARTIST: MARILYN MANSON
TITLE: DOPE HAT
ALBUM: PORTRAIT OF AN AMERICAN FAMILY
USER: KBZON

[INTRO]
RIFF 1
e|----------------------------|
b|----------------------------|
g|----------------------5--4--|
D|-444444-777777-444444-5--4--|
A|-444444-777777-444444-3--2--|
E|-222222-555555-222222-------|  (X2)

[SOLO 1]
e|-2-3/9-12\8-5/7-7--12--------12-------|
b|----------------------12-10-----12-13-|
g|--------------------------------------|
D|--------------------------------------|
A|--------------------------------------|
E|--------------------------------------|

RIFF 2
e|--------------------------|
b|--------------------------|
g|------6-6--5-5--4-4-------|
D|-4-4--6-6--5-5--4-4-------|
A|-4-4--4-4--3-3--2-2-------|
E|-2-2----------------------| (X2)

[VERSES] ONLY BASS

I peek into the hole
I struggle for control
the children love the show
but they fail to see the anguish in my eyes
fail to see the anguish in my eyes

[SOLO 2]
e|---9---8888888\7--------------------------------------8-8/12----|
b|-7---7--------7--------7-1010101010--7--------9p7h9p7h9p7h9p7---|
g|----------------999999---------6-5-4----------------------------|
D|----------------------------------------------------------------|
A|----------------------------------------------------------------|
E|----------------------------------------------------------------|

[VERSES 2]
RIFF 2
e|--------------------------|
b|--------------------------|
g|------6-6--5-5--4-4-------|
D|-4-4--6-6--5-5--4-4-------|
A|-4-4--4-4--3-3--2-2-------|
E|-2-2----------------------| (X8)
I scratch around the brim
I let my mind give in
The crowd begins to grin
but they seem to scream as darkness fills my eyes
seem to scream as darkness fills my eyes
it's no suprise

[INTERVAL]
e|------------|
b|------------|
g|------------|
D|-4-------4--|
A|-4-------4--|
E|-2-------2--|

[CHORUS]
RIFF 1
e|----------------------------|
b|----------------------------|
g|----------------------5--4--|
D|-444444-777777-444444-5--4--|
A|-444444-777777-444444-3--2--|
E|-222222-555555-222222-------|  (X2)
Fail to see the tragic
Turn it into magic

[BRIDGE]

E          C                  E        C
My big top tricks will always make you happy

F#         D               F#      D
But we all know the hat is wearing me
[ Tab from: http://www.guitartabs.cc/tabs/m/marilyn_manson/dope_hat_tab_ver_2.html ]
RIFF 3
e|--------------------------------------------|
b|--------------------------------------------|
g|-11-11-11-10-10-10-999-888-777-666-555-4----|
D|-11-11-11-10-10-10-999-888-777-666-555-4--4-|
A|--9--9--9--8--8--8-777-666-555-444-333-2--4-|
E|------------------------------------------2-|

[VERSES]
RIFF 2
e|--------------------------|
b|--------------------------|
g|------6-6--5-5--4-4-------|
D|-4-4--6-6--5-5--4-4-------|
A|-4-4--4-4--3-3--2-2-------|
E|-2-2----------------------| (X12)
My bag is in the hat
It's filled with this and that
My vision's getting fat
the rabbits just a monkey in disguise
stars and pills and needles dance before our eyes
They will bite the hand
If it's slower than
the quickness of their scrutinizing eyes

[SOLO 3]
e|-------------------------0000-2-0-0-2-0---0---|
b|---------------------5------------------2---2-|
g|--------2-2222-4-5-6---6----------------------|
D|-4-4444---------------------------------------|
A|----------------------------------------------|
E|----------------------------------------------|

e|-000-2-0-2-0-2-0-2/5-55/9/14-17-17-17-17/16--|
b|---------------------------------------------|
g|---------------------------------------------|
D|---------------------------------------------|
A|---------------------------------------------|
E|---------------------------------------------|

[CHORUS]
RIFF 1
e|----------------------------|
b|----------------------------|
g|----------------------5--4--|
D|-444444-777777-444444-5--4--|
A|-444444-777777-444444-3--2--|
E|-222222-555555-222222-------|  (X2)
Fail to see the tragic
Turn it into magic

[BRIDGE]

E          C                  E        C
My big top tricks will always make you happy

F#         D               F#      D
But we all know the hat is wearing me

E       C                 E        C
Chicanery will always make you happy

F#         D               F#      D
But we all know the hat is wearing me

RIFF 3
e|--------------------------------------------|
b|--------------------------------------------|
g|-11-11-11-10-10-10-999-888-777-666-555-4----|
D|-11-11-11-10-10-10-999-888-777-666-555-4--4-|
A|--9--9--9--8--8--8-777-666-555-444-333-2--4-|
E|------------------------------------------2-|

[END SONG]
e|-----|
b|-----|
g|-----|
D|-5/4-|
A|-5/4-|
E|-3/2-|
Comments