Marilyn Manson - Disposable Teens Chords & Tabs

 

Disposable Teens Chords & Tabs

Marilyn Manson Chords & Tabs

Version: 1 Type: Tab 0 ratings
1 star 2 stars 3 stars 4 stars 5 stars
comments

Disposable Teens Tab

   
Disposable Teens-Marilyn Manson
Holy Wood (In the Shadow of the Valley of Death)

Drop D

Free Time:

e-----------------------------------------------------------------
b--------------------------------------------------10-------------
g--------------------------------------------------12b-r----------
d-----------------------------------------------------------------
a-----------------------------------------------------------------
d-----------------------------------------------------------------

Fig 1.
e-----------------------------------------------------------------
b-----------------------------------------------------------------
g-7--7--5-10b---7--7----7--5--7-----------------------------------
d-7--7--5-10b---7--7----7--5--7-----------------------------------
a-5--5--3--8----5--5----5--3--5-----------------------------------
d----------------------------------0---0--------------------------

(0:16)
[ Tab from: http://www.guitartabs.cc/tabs/m/marilyn_manson/disposable_teens_tab.html ]
Fig 2.
e-----------------------------------------------------------------
b-----------------------------------------------------------------
g-----------------------------------------------------------------
d-0-----------0-0------------------0-----------0-0--------0-3br---
a-0-----------0-0------------------0-----------0-0--------0-3br---
d-0---0-0-0-0-0-0----0-0-0-0-0-0-0-0---0-0-0-0-0-0----0-0-0-3br---

Verses: Fig 2.
Pre Chorus/Chorus: Fig 1.

Bridge:

e-----------------------------------------------------------------
b-----------------------------------------------------------------
g-5-5-5-5-5-5-5-5-5-5-5-5-5-5-5-5-5-5-5-5-5-5-5-5-5-5-5-5-5-6-6-6-
D-5-5-5-5-5-5-5-5-5-5-5-5-5-5-5-5-5-5-5-5-5-5-5-5-5-5-5-5-5-6-6-6-
a-3-3-3-3-3-3-3-3-3-3-3-3-3-3-3-3-3-3-3-3-3-3-3-3-3-3-3-3-3-4-4-4-
d-----------------------------------------------------------------

e-----------------------------------------------------------------
b-----------------------------------------------------------------
g-----------------------------------------------------------------
d-------3b---3b-------------------------3b---3b-------------------
a-5-5-3----------5--5-3-5---5---5---5-3-----------5--5-3-5--5---5-
d-----------------------------------------------------------------

Outro:

e-----------------------------------------------------------------
b-----------------------------------------------------------------
g-7--7--5-10b---7--7----7--5--7-----------------------------------
d-7--7--5-10b---7--7----7--5--7-----------------------------------
a-5--5--3--8----5--5----5--3--5-----------------------------------
d----------------------------------0---0---0----------------------

thatís all

trevor jones
timmy91199@yahoo.ca
Comments