Marilyn Manson - Disposable Teens Chords & Tabs

 

Disposable Teens Chords & Tabs

Marilyn Manson Chords & Tabs

Version: 4 Type: Bass Tab 0 ratings
1 star 2 stars 3 stars 4 stars 5 stars
comments

Disposable Teens Bass Tab

#----------------------------------PLEASE NOTE---------------------------------#
#This file is the author's own work and represents their interpretation of the #
#song. You may only use this file for private study, scholarship, or research. #
#------------------------------------------------------------------------------#


Disposable Teens - Marilyn Manson
Jon Craven (nojnevarc@hotmail.com)
(enters @ 0:02)

Riff 1: (x4)
G:---------------|----------------|
D:-------3**-----|----------------|
A:-5-5-3-----5-3-|-5-5-3-5--------|
D:---------------|---------0-0--0-|
[ Tab from: http://www.guitartabs.cc/tabs/m/marilyn_manson/disposable_teens_btab_ver_4.html ]
Riff 2: (x3)
G:--------------|------------|--------------|---------------|
D:--------------|------------|--------------|---------------|
A:--------------|------------|--------------|---------------|
D:-0--x--x--0-0-|-x--x--x--x-|-0--x--x--0-0-|-x--x--2h3-2h3-|

Riff 1 (x2)
Riff 2 (x2)
Riff 1 (x4)
Riff 2 (x2)
Riff 1 (x6)

Riff 3:
G:------------|------------|------------|------------|------------|------------|------------|
D:------------|------------|------------|------------|------------|------------|------------|
A:-3--3--3--3-|-3--3--3--3-|-3--3--3--3-|-3--3--3--3-|-3--3--3--3-|-3--3--3--3-|-3--3--3--3-|
D:------------|------------|------------|------------|------------|------------|------------|

G:------------|
D:------------|
A:-3--3--3--4-|
D:------------|

Pause for 7 measures

Fill:
G:------------|
D:------------|
A:-R--R--3--4-|
D:------------|

Riff 1 (x12)
Break till end
Comments