Marilyn Manson - Diamonds Amp Pollen Chords & Tabs

 

Diamonds Amp Pollen Chords & Tabs

Marilyn Manson Chords & Tabs

Version: 1 Type: Tab 0 ratings
1 star 2 stars 3 stars 4 stars 5 stars
comments

Diamonds Amp Pollen Tab

Song: Diamonds & Pollen (Corrected version)
Artist: Marilyn Manson
Written by: M Manson,T Ramirez and MW Gacy (Pogo)
Lyrics by: M Manson
Album: Disposable Teens singel
tabed by: Per "Pogo" Stenberg

I think this song sucks! but... the Gacys piano
is the best shit i have ever heard! So dedicate
this tab (And every other i have done) to Gacy (Pogo)
Love you man...


Intro A Guitar? Sythn?
In the begin you hear these noises...

---------3^-3^--------
----------------------
----------------------
----------------------
----------------------
-0--0--0-------0--0---


Intro B Piano? Bass?
I can't tell if this is a piano or a bass.

---------------------
---------------------
---------------------
---------------------
-55555555557777777---
---------------------


Solo   Guitar 

-----------------12p10-10---------------12p10-10-----------
---------------------------12~-10~-9~------------12~-10~-9~
-----------------------------------------------------------
-9~-7~-5~-3~-2~--------------------------------------------
-----------------------------------------------------------
-----------------------------------------------------------


Main riff  Guitar
(this part is WERY hard to tab, so this
may not be correct)
[ Tab from: http://www.guitartabs.cc/tabs/m/marilyn_manson/diamonds_amp_pollen_tab.html ]
------------------------------------------
------------------------------------------
------------------------------------------  x1000
------------------------------------------
----------7~---------7~---------7~-9~/10~-
-0~0~0~0~---0~0~0~0~---0~0~0~0~-----------


at 2.30 there is a rhythm gtr entring but
I can't hearit so well, so... sorry... :(


Outro   Piano
2.50
WOW! This is the best piano I have heard.
Love you Pogo (Gacy)
Play the piano parts 2 times.

Part 1 
------------------------------------------
------------------------------------------
-7-9-----1-8----0-----4-----4-5-4---------
-7---10--1---9--0--7-----7---------7-5p0--
------------------------------------------
------------------------------------------

Part 2
---------------------------------
-------7--1-7-10-----------------
-7-7-9----1--------7-9-5-4-2-0---
-7-----------------7-9-5-4-2-0---
---------------------------------
---------------------------------

Part 3
--------------------------------
-------7-------7-10------------- 
-7-7-9----7-6--------7-9-5-4-2-0
-7------------------------------
--------------------------------
--------------------------------

Yes I have done it agian!
I would not get through it.
If anyone knew if Pogo (Gacy) Wrote all those piano
part by himself or any corrections then contacte me. 
fanta98@hotmail.com
Comments