Marilyn Manson - Dance Of The Dope Hats Chords & Tabs

 

Dance Of The Dope Hats Chords & Tabs

Marilyn Manson Chords & Tabs

Version: 1 Type: Tab 0 ratings
1 star 2 stars 3 stars 4 stars 5 stars
comments

Dance Of The Dope Hats Tab

   
Dance of The Dope Hats
By Marilyn Manson
From Smells Like Children
Tabbed By Mike Gagnon

Standard Tuning

First Part

e------------
B------------
G------------
D------------
A-4-4----4-4-
E-2-2----2-2-

Second Part

e---------------------------------------
B---------------------------------------
G---------------------------------------
D-----------6-6-6-6--5-5-5-5-9/11-9/11--
A-4-4-4-4---4-4-4-4--3-3-3-3-7/9--7/9---
E-2-2-2-2-------------------------------

Third Part (Verse?)
[ Tab from: http://www.guitartabs.cc/tabs/m/marilyn_manson/dance_of_the_dope_hats_tab.html ]
e-------------------
B-------------------
G-------------------
D-------------------
A-------------------
E-2-2-2-2-2-2-2-2-2-

Final Part

e-----------------------------------------------------------------------
B-----------------------------------------------------------------------
G-----------------------------------------------------------------------
D----------5--4-------------------5--5-5--5-5---------------7--7-7--7-7-
A-4--7--4--3--2------2--2-2--2-2--3--3-3--3-3--4--4-4--4-4--5--5-5--5-5-
E-2--5--2------------0--0-0--0-0---------------2--2-2--2-2--------------

I don't have a name for the parts cause I am not much for tabbing remixes, 
but hell, at least I am trying.....
Comments