Marilyn Manson - Coma White Chords & Tabs

 

Coma White Chords & Tabs

Marilyn Manson Chords & Tabs

Version: 8 Type: Tab 0 ratings
1 star 2 stars 3 stars 4 stars 5 stars
comments

Coma White Tab

----------------------------------------------------------------------------
                          COMA WHITE - Marilyn Manson
----------------------------------------------------------------------------

INTRO & VERSE
e-------------------------------------------| 
B-------0------0------0------0------1----1--| 
G---2------2------2------2------2-----------| 
D-------------------------------------------|X 3 
A-------------------------------------------| 
E-------------------------------------------| 

-------------------------- 
--3--3--3--3--1--1--0--0-- 
--------------------------
-------------------------- 
-------------------------- 
--------------------------

CHORUS
--------------------------------------------------------------------------- 
--------------------------------------------------------------------------- 
--------------------------------------------------------------------------- 
-7-7-7-7-7-7-7-7-10-10-10-10-10-10-10-10-5-5-5-5-5-5-5-5-5\3-3-3-3-3-3-3-3- 
-7-7-7-7-7-7-7-7-10-10-10-10-10-10-10-10-5-5-5-5-5-5-5-5-5\3-3-3-3-3-3-3-3- 
-5-5-5-5-5-5-5-5-8 -8 -8 -8 -8 -8 -8 -8 -3-3-3-3-3-3-3-3-3\1-1-1-1-1-1-1-1- 
[ Tab from: http://www.guitartabs.cc/tabs/m/marilyn_manson/coma_white_tab_ver_8.html ]
INTERLUDE 
------------------------------------------------------------------| 
------------------------------------------------------------------| 
------------------------------------------------------------------| 
-7-7-7-7-10-12-X-6-6-6-6-10-12-X-7-7-7-7-12-10-X-3-3-3-3-3-3-3-3--| 
-7-7-7-7-10-12-X-6-6-6-6-10-12-X-7-7-7-7-12-10-X-3-3-3-3-3-3-3-3--| 
-5-5-5-5-8 -10-X-4-4-4-4-8 -10-X-5-5-5-5-10-8 -X-1-1-1-1-1-1-1-1--| 

SOLO   [i think this is right, or else my guitar isnt tuned in]
e-5-5-5-5----5----------5------5---------------------------
B----------8----8-7--7----7--6----6p5h6--------------------
G----------------------------------------------------------
D----------------------------------------------------------
A----------------------------------------------------------
E----------------------------------------------------------

KEYBOARD ARR. FOR GTR.
e-------12--10--12-----12--10--12----|
B----12-------------12---------------|
G------------------------------------|
D------------------------------------|
A------------------------------------|
E------------------------------------|

OUTRO
------------
------------
------------
-9B(10)-7-5-
------------
-----------
Comments