Marilyn Manson - Coma White Chords & Tabs

 

Coma White Chords & Tabs

Marilyn Manson Chords & Tabs

Version: 7 Type: Tab 0 ratings
1 star 2 stars 3 stars 4 stars 5 stars
comments

Coma White Tab

Song:Coma White

Tabbed By:Mariojohnl5

Turning:Standard


Intro, Verse and Verse 2
There's something......

1|-----------------------|
2|-----0--0--0--0--0-1-1-|
3|----2--2--2--2--2------| Repeat it 3 times then.............
4|-----------------------|
5|-----------------------|
6|-----------------------|

1|------------------------------------------|
2|-----0--0--0--0--0-1-1-3-3-3-3-1-1-0-0----|
3|----2--2--2--2--2-------2-2-2-2-2-2-2-----|
4|------------------------------------------|
5|------------------------------------------|
6|------------------------------------------|

Chorus
I Pill you......

1|------------------------------|
2|------------------------------|
3|------------------------------|
4|----7--10--4--4h5-3-----------|
5|----7--10--4--4h5-3-----------|
6|----5--8---2--2h3-1-----------|
      *  *   *      *

Pre-Chorus
After The Chorus
[ Tab from: http://www.guitartabs.cc/tabs/m/marilyn_manson/coma_white_tab_ver_7.html ]
1|----------------------------------------------------------|
2|----------------------------------------------------------|
3|----------------------------------------------------------|
4|---7-7-7-7--10-12--6--6-6-6--10-12--7--7-7-7--12-10--3----|
5|---7-7-7-7--10-12--6--6-6-6--10-12--7--7-7-7--12-10--3----|
6|---5-5-5-5--8--10--4--4-4-4--8--10--5--5-5-5--10-8---1----|

Keyboard Solo.

1|-------12--10--12-----12--10--12----|
2|----12-------------12---------------|
3|------------------------------------|
4|------------------------------------|
5|------------------------------------|
6|------------------------------------|

riff 

1|-----------------------|
2|-----------------------|
3|-----------------------|
4|----7--10--12--15------|
5|----7--10--12--15------|
6|----5--8---10--13------|
      *  *   *   *

Guitar Solo

1|---full------full----full------full----full------full-----full-----full--|
2|-----)---------)-------)---------)-------)---------)-------)--------/----|
3|----/-\-------/-\-----/-\-------/-\-----/-\-------/-\-----/-\------/-----|
4|---9--(9)-7--9--(9)--9--(9)-7--9--(9)--9--(9)-7--9--(9)--9--(9)-7-12-----|
5|-------------------------------------------------------------------------|
6|-------------------------------------------------------------------------|

Solo 2
This solo 2 shall play to the end

1|---full------------|
2|----/\-------------|
3|---/--\------------|
4|--9---(9)--7----5--|
5|-------------------|
6|-------------------|

That's All
If You have any Question please mail Me to:Mariojohnl5@netscape.net
Enjoy It!
Comments