Marilyn Manson - Coma White Chords & Tabs

 

Coma White Chords & Tabs

Marilyn Manson Chords & Tabs

Version: 12 Type: Tab

Coma White Tab

   
Artist/Band - Marilyn Manson
Album - Mechanical Animals
Song - Coma White

Tuning: Standard (E A D G B E)

Key:
b = Bend String
/ = Slide Upwards
\ = Slide Downwards
x = Mute String
h = Hammer On
p = Pull Off



GUITAR 1:

Intro:                                               x2
E]-----------------------------------------------------|
B]----0---0---0---0--1---1------0---0---0---0--1--1----|
G]--2---2---2---2-------------2---2---2---2------------|
D]-----------------------------------------------------|
A]-----------------------------------------------------|
E]-----------------------------------------------------|

E]-----------------------------------------------------|
B]----0---0---0---0--1--1----5/7--7--7--7--5--5--4--4--|
G]--2---2---2---2--------------------------------------|
D]-----------------------------------------------------|
A]-----------------------------------------------------|
E]-----------------------------------------------------|


Verse 1:
E]-----------------------------------------------------|
B]----0---0---0---0--1---1------0---0---0---0--1--1----|
G]--2---2---2---2-------------2---2---2---2------------|
D]-----------------------------------------------------|
A]-----------------------------------------------------|
E]-----------------------------------------------------|

E]-----------------------------------------------------|
B]----0---0---0---0--1--1----5/7--7--7--7--5--5--4--4--|
G]--2---2---2---2--------------------------------------|
D]-----------------------------------------------------|
A]-----------------------------------------------------|
E]-----------------------------------------------------|


Pre-Chorus:
E]-----------------------------------------------------|
B]----0---0---0---0--1---1------0---0---0---0--1--1----|
G]--2---2---2---2-------------2---2---2---2------------|
D]-----------------------------------------------------|
A]-----------------------------------------------------|
E]-----------------------------------------------------|

E]-----------------------------------------------------|
B]----0---0---0---0--1--1----5/7--7--7--7--5--5--4--4--|
G]--2---2---2---2--------------------------------------|
D]-----------------------------------------------------|
A]-----------------------------------------------------|
E]-----------------------------------------------------|

Chorus:
E]-------------------------------------------------------------------------------|
B]-------------------------------------------------------------------------------|
G]-------------------------------------------------------------------------------|
D]--7-7-7-7-7-7-7-7--10-10-10-10-10-10-10-10--5-5-5-5-5-5-5-5-5\3-3-3-3-3-3-3-3--| x2
A]--7-7-7-7-7-7-7-7--10-10-10-10-10-10-10-10--5-5-5-5-5-5-5-5-5\3-3-3-3-3-3-3-3--|
E]--5-5-5-5-5-5-5-5---8--8--8--8--8--8--8--8--3-3-3-3-3-3-3-3-3\1-1-1-1-1-1-1-1--|


Guitar Solo:
E]--5-5-5-5---5---------5------5--|
B]----------8---8-7--7----7--6----|
G]--------------------------------|
D]--------------------------------|
A]--------------------------------|
E]--------------------------------|

E]--5-5-5-5---5---------5------5---------|
B]----------8---8-7--7----7--6----6p5h6--|
G]---------------------------------------|
D]---------------------------------------|
A]---------------------------------------|
E]---------------------------------------|


Verse 2:                                             x2
E]-----------------------------------------------------|
B]----0---0---0---0--1---1------0---0---0---0--1--1----|
G]--2---2---2---2-------------2---2---2---2------------|
D]-----------------------------------------------------|
A]-----------------------------------------------------|
E]-----------------------------------------------------|

E]-----------------------------------------------------|
B]----0---0---0---0--1--1----5/7--7--7--7--5--5--4--4--|
G]--2---2---2---2--------------------------------------|
D]-----------------------------------------------------|
A]-----------------------------------------------------|
E]-----------------------------------------------------|


Pre-Chorus:                                          x2
E]-----------------------------------------------------|
B]----0---0---0---0--1---1------0---0---0---0--1--1----|
G]--2---2---2---2-------------2---2---2---2------------|
D]-----------------------------------------------------|
A]-----------------------------------------------------|
E]-----------------------------------------------------|

E]-----------------------------------------------------|
B]----0---0---0---0--1--1----5/7--7--7--7--5--5--4--4--|
G]--2---2---2---2--------------------------------------|
D]-----------------------------------------------------|
A]-----------------------------------------------------|
E]-----------------------------------------------------|

Chorus:
E]-------------------------------------------------------------------------------|
B]-------------------------------------------------------------------------------|
G]-------------------------------------------------------------------------------|
D]--7-7-7-7-7-7-7-7--10-10-10-10-10-10-10-10--5-5-5-5-5-5-5-5-5\3-3-3-3-3-3-3-3--| x4
A]--7-7-7-7-7-7-7-7--10-10-10-10-10-10-10-10--5-5-5-5-5-5-5-5-5\3-3-3-3-3-3-3-3--|
E]--5-5-5-5-5-5-5-5---8--8--8--8--8--8--8--8--3-3-3-3-3-3-3-3-3\1-1-1-1-1-1-1-1--|

(Pause as Guitar 2 plays Bridge for a while)


Guitar Solo:                    x4
E]--5-5-5-5---5---------5------5--|
B]----------8---8-7--7----7--6----|
G]--------------------------------|
D]--------------------------------|
A]--------------------------------|
E]--------------------------------|

E]--5-5-5-5---5---------5------5---------|
B]----------8---8-7--7----7--6----6p5h6--|
G]---------------------------------------|
D]---------------------------------------|
A]---------------------------------------|
E]---------------------------------------|

Pre-Chorus:
E]-------------------------------------------------------------------------------|
B]-------------------------------------------------------------------------------|
G]-------------------------------------------------------------------------------|
D]--7-7-7-7-7-7-7-7--10-10-10-10-10-10-10-10--5-5-5-5-5-5-5-5-5\3-3-3-3-3-3-3-3--| x5
A]--7-7-7-7-7-7-7-7--10-10-10-10-10-10-10-10--5-5-5-5-5-5-5-5-5\3-3-3-3-3-3-3-3--|
E]--5-5-5-5-5-5-5-5---8--8--8--8--8--8--8--8--3-3-3-3-3-3-3-3-3\1-1-1-1-1-1-1-1--|


Outro:
(Guitar 2 finishes the song off)



==================================================================================

GUITAR 2:
[ Tab from: http://www.guitartabs.cc/tabs/m/marilyn_manson/coma_white_tab_ver_12.html ]
Intro:                                               x2
E]-----------------------------------------------------|
B]----0---0---0---0--1---1------0---0---0---0--1--1----|
G]--2---2---2---2-------------2---2---2---2------------|
D]-----------------------------------------------------|
A]-----------------------------------------------------|
E]-----------------------------------------------------|

E]-----------------------------------------------------|
B]----0---0---0---0--1--1----5/7--7--7--7--5--5--4--4--|
G]--2---2---2---2--------------------------------------|
D]-----------------------------------------------------|
A]-----------------------------------------------------|
E]-----------------------------------------------------|


Verse 1:                                             x2
E]-----------------------------------------------------|
B]----0---0---0---0--1---1------0---0---0---0--1--1----|
G]--2---2---2---2-------------2---2---2---2------------|
D]-----------------------------------------------------|
A]-----------------------------------------------------|
E]-----------------------------------------------------|

E]-----------------------------------------------------|
B]----0---0---0---0--1--1----5/7--7--7--7--5--5--4--4--|
G]--2---2---2---2--------------------------------------|
D]-----------------------------------------------------|
A]-----------------------------------------------------|
E]-----------------------------------------------------|


Pre-Chorus:                                          x2
E]-----------------------------------------------------|
B]----0---0---0---0--1---1------0---0---0---0--1--1----|
G]--2---2---2---2-------------2---2---2---2------------|
D]-----------------------------------------------------|
A]-----------------------------------------------------|
E]-----------------------------------------------------|

E]-----------------------------------------------------|
B]----0---0---0---0--1--1----5/7--7--7--7--5--5--4--4--|
G]--2---2---2---2--------------------------------------|
D]-----------------------------------------------------|
A]-----------------------------------------------------|
E]-----------------------------------------------------|


Chorus: (Keyboard Arranged For 2nd Guitar)
E]-----12--10--12------12--10--12------12--10--12------12--10--12--|
B]--12--------------12--------------12--------------12-------------|
G]-----------------------------------------------------------------|
D]-----------------------------------------------------------------| x2
A]-----------------------------------------------------------------|
E]-----------------------------------------------------------------|


Bridge: (Played during Guitar 1 playing a Guitar Solo)
E]--------------------------------------------------------------------|
B]--------------------------------------------------------------------|
G]--------------------------------------------------------------------|
D]--7-7-7-7-10-12-x-6-6-6-6-10-12-x-7-7-7-7--12-10-x-3-3-3-3-3-3-3-3--|
A]--7-7-7-7-10-12-x-6-6-6-6-10-12-x-7-7-7-7--12-10-x-3-3-3-3-3-3-3-3--|
E]--5-5-5-5--8-10-x-4-4-4-4--8-10-x-5-5-5-5--10--8-x-1-1-1-1-1-1-1-1--|


Verse 2:                                             x2
E]-----------------------------------------------------|
B]----0---0---0---0--1---1------0---0---0---0--1--1----|
G]--2---2---2---2-------------2---2---2---2------------|
D]-----------------------------------------------------|
A]-----------------------------------------------------|
E]-----------------------------------------------------|

E]-----------------------------------------------------|
B]----0---0---0---0--1--1----5/7--7--7--7--5--5--4--4--|
G]--2---2---2---2--------------------------------------|
D]-----------------------------------------------------|
A]-----------------------------------------------------|
E]-----------------------------------------------------|


Pre-Chorus:                                          x2
E]-----------------------------------------------------|
B]----0---0---0---0--1---1------0---0---0---0--1--1----|
G]--2---2---2---2-------------2---2---2---2------------|
D]-----------------------------------------------------|
A]-----------------------------------------------------|
E]-----------------------------------------------------|

E]-----------------------------------------------------|
B]----0---0---0---0--1--1----5/7--7--7--7--5--5--4--4--|
G]--2---2---2---2--------------------------------------|
D]-----------------------------------------------------|
A]-----------------------------------------------------|
E]-----------------------------------------------------|


Chorus: (Keyboard Arranged For 2nd Guitar)
E]-----12--10--12------12--10--12------12--10--12------12--10--12--|
B]--12--------------12--------------12--------------12-------------|
G]-----------------------------------------------------------------|
D]-----------------------------------------------------------------| x4
A]-----------------------------------------------------------------|
E]-----------------------------------------------------------------|


Bridge:
E]--------------------------------------------------------------------|
B]--------------------------------------------------------------------|
G]--------------------------------------------------------------------|
D]--7-7-7-7-10-12-x-6-6-6-6-10-12-x-7-7-7-7--12-10-x-3-3-3-3-3-3-3-3--|
A]--7-7-7-7-10-12-x-6-6-6-6-10-12-x-7-7-7-7--12-10-x-3-3-3-3-3-3-3-3--|
E]--5-5-5-5--8-10-x-4-4-4-4--8-10-x-5-5-5-5--10--8-x-1-1-1-1-1-1-1-1--|

(Guitar 1 comes in now and plays a Solo)

E]--------------------------------------------------------------------|
B]--------------------------------------------------------------------|
G]--------------------------------------------------------------------|
D]--7-7-7-7-10-12-x-6-6-6-6-10-12-x-7-7-7-7--12-10-x-3-3-3-3-3-3-3-3--| x2
A]--7-7-7-7-10-12-x-6-6-6-6-10-12-x-7-7-7-7--12-10-x-3-3-3-3-3-3-3-3--|
E]--5-5-5-5--8-10-x-4-4-4-4--8-10-x-5-5-5-5--10--8-x-1-1-1-1-1-1-1-1--|


Pre-Chorus: (Keyboard Arranged For 2nd Guitar)
E]-----12--10--12------12--10--12------12--10--12------12--10--12--|
B]--12--------------12--------------12--------------12-------------|
G]-----------------------------------------------------------------|
D]-----------------------------------------------------------------| x2
A]-----------------------------------------------------------------|
E]-----------------------------------------------------------------|


Final Chorus:
E]------------------------------------------------------|
B]------------------------------------------------------|
G]------------------------------------------------------|
D]--7-7-7-7-9b---7-7-7-7-9b---7-7-7-7-9b---7-7-7-7-10b--| x2
A]------------------------------------------------------|
E]------------------------------------------------------|

E]-------------------------------------|
B]-------------------------------------|
G]-------------------------------------|
D]--9b-7-5---9b-7-5---9b-7-5---9b-7-5--| x3
A]-------------------------------------|
E]-------------------------------------|