Marilyn Manson - Coma White Chords & Tabs

 

Coma White Chords & Tabs

Marilyn Manson Chords & Tabs

Version: 1 Type: Tab 0 ratings
1 star 2 stars 3 stars 4 stars 5 stars
comments

Coma White Tab

Coma White (Acoustic) by Marilyn Manson
Guitarist: John 5
Album: Last Tour On Earth Import
Dif.: 7
Tabbed by Boris Zivkovic

NOTE: Guitar 1 is acoustic the rest are electric
NOTE: * = strum 8x

Intro/Verse/Pre-Chorus (Gtr. 1) (fingerpicked)
B|--------0------0-------0-----0----0---|-%-|-%-|----0--0--0--0--0--0--0--0-|
G|-----4------4-------4-----5----5------|-%-|-%-|-/7--7--7--7--5--5--4--4---|
D|--7-------7-------7-------------------|-%-|-%-|---------------------------|

Pre-Chorus (Gtr. 2) (w/ tremelo effect)
b|---13----------12---------10-----------12-13---|

Chorus (Gtr. 1)
G|--2*--5*------------|
D|--2*--5*--5*--3*----|
A|--0*--3*--5*--3*----|
E|----------3*--1*----|

Chorus/Bridge 1 (Gtr. 2)
E|-------12--10--12---|
B|--12----------------|

Post-Chorus (Gtr. 1)
D|-7-7-7-7-10/12-xxx--6-6-6-6-10-/12-xxx--7-7-7-7-12\10-x-x-
A|-7-7-7-7-10/12-xxx--6-6-6-6-10-/12-xxx--7-7-7-7-12\10-x-x-
E|-5-5-5-5--8/10-xxx--4-4-4-4--8-/10-xxx--5-5-5-5-10\-8-x-x-

Post-Chorus (Gtr. 1) (cont.)
E|--0--0--0-0-0-0----0-----------------|
B|--0--0--0-0-0-0----0-----------------|
G|--0--0--0-0-0-0----0-----------------|
D|--3--3--3-3-3-3----7-----------------|
A|--3--3--3-3-3-3----7-----------------|
E|--1--1--1-1-1-1----5-----------------|

Post-Chorus (Gtr. 2)
B|-10-10-10-10----10------------10--------10---------
G|----------------12----12-11-11---11-10-------------
D|--------------------------------------------10h12--

Post-Chorus (Gtr. 2) (cont.)
B|-10-10-10-10--------10--------10--------10-----------------|
G|----------------12----12-11-11---11-10---------------------|
D|---------------------------------------------10h12--10h12--|
[ Tab from: http://www.guitartabs.cc/tabs/m/marilyn_manson/coma_white_tab.html ]
Fill 1 (Gtr. 1) (fingerpicked)
B|--------0------0-------0-----0----0---|-%-|----0--0--0--0--0--0--0--0-|
G|-----4------4-------4-----5----5------|-%-|-/7--7--7--7--5--5--4--4---|
D|--7-------7-------7-------------------|-%-|---------------------------|

Fill 2 (Gtr. 3)
G|--4^--(4)---|-%-|-%-|-%-|
     ^ bend up ½ step then back down to bracketed 4

Bridge 1 (Gtr. 1)
D|--7*-10------|
A|--7*-10------|
E|--5*--8------|

Bridge 2 (Gtr. 1)
D|--7*-10*-12*--3*--|
A|--7*-10*-12*--3*--|
E|--5*--8*-10*--1*--|

Last Chorus (Gtr. 3)    \/ bend up full step
G|--4^--(4)---|-%-|-%-|-7^-|
    ^ bend up ½ step then back down to bracketed 4

End (Gtr. 1)
B|-0h1p0-------|
G|--------2-0--|

End (Gtr. 2)
G|-4h5p4-2-0--|

Song Strucutre: -
Intro (Gtr. 1)
Intro (Gtr. 1) (w/bass)
Verse (Gtr. 1) ("There’s something cold and blank….")
Pre-Chorus (Gtr. 1)/Pre-Chorus (Gtr. 2) ("Today, today, today, to run away…")
Chorus (Gtr. 1)/Chorus (Gtr. 2) ("A pill to make you numb…")
Post-Chorus (Gtr. 1)/Post-Chorus (Gtr. 2)
Fill 1 (Gtr. 1) ("Her mouth was an empty cut…")
Verse (Gtr. 1) ("Just bleeding like a Polaroid…")
Pre-Chorus (Gtr. 1)/Pre-Chorus (Gtr. 2) ("Today, today, today, to run away…")
Chorus (Gtr. 1)/Chorus (Gtr. 2) ("A pill to make you numb…")
Chorus (Gtr. 1)/Chorus (Gtr. 2)/Fill 2 (Gtr. 3) ("A pill to make you numb…")
Post-Chorus (Gtr. 1)
Post-Chorus (Gtr. 1)/Post-Chorus (Gtr. 2)
Bridge 1 (Gtr. 1)/Bridge 1 (Gtr. 2)
Bridge (Gtr. 2)
Bridge 2 (Gtr. 1)/Bridge 1 (Gtr. 2)
Chorus (Gtr. 1)/Chorus (Gtr. 2)/Last Chorus (Gtr. 3)
End (Gtr. 1)/End (Gtr. 2)
End (Gtr. 1)

Ahhh, such a beautiful song. I think the import of the last tour cd is the japenese one.
It has like an extra CD with some extra songs on it. So yeah, if you have any comments,
 corrections or suggestions email me at sexy_devilboy.com
Comments