Marilyn Manson - Coma White Chords & Tabs

 

Coma White Chords & Tabs

Marilyn Manson Chords & Tabs

Version: 3 Type: Bass Tab 0 ratings
1 star 2 stars 3 stars 4 stars 5 stars
comments

Coma White Bass Tab

   
Artist: Marilyn Manson
Title: Coma White
Album: Mechanical Animals

 
Tabbed by Olivs from MV Storm !!!
Please rate this tab.
SVP votez pour ma tablature.

Intro (00:13):
G|-------------------|
D|-------------------|
A|-------------------|    x5
E|-5---8---3---1--3--|

Chorus
G|---------------------------------------------------------------------|
D|---------------------------------------------------------------------|
A|---------------------------------------------------------------------| x2
E|-5-5-5-5-5-5-5-5/8-8-8-8/12-12-12-12-3-3-3-3-3-3-3-3-0-1-1-1-1-1-1/3/|

Bridge
G|------------------------------------------------------|
D|------------------------------------------------------|
A|------------------------------------------------------|x1
E|-5-5-5-5-8h10-4-4-4-4-8h10-5-5-5-5-10h8-1-1-1-1-1-1-1-|
[ Tab from: http://www.guitartabs.cc/tabs/m/marilyn_manson/coma_white_btab_ver_3.html ]
Verse
G|-------------------|
D|-------------------|
A|-------------------|    x4
E|-5---8---3---1--3--|

Chorus
G|---------------------------------------------------------------------|
D|---------------------------------------------------------------------|
A|---------------------------------------------------------------------| x4
E|-5-5-5-5-5-5-5-5/8-8-8-8/12-12-12-12-3-3-3-3-3-3-3-3-0-1-1-1-1-1-1/3/|

-stop solo guitars-

Bridge (3:48)
G|------------------------------------------------------|
D|------------------------------------------------------|
A|------------------------------------------------------|x1
E|-5-5-5-5-8h10-4-4-4-4-8h10-5-5-5-5-10h8-1-1-1-1-1-1-1-|

Chorus
G|---------------------------------------------------------------------|
D|---------------------------------------------------------------------|
A|---------------------------------------------------------------------| x6
E|-5-5-5-5-5-5-5-5/8-8-8-8/12-12-12-12-3-3-3-3-3-3-3-3-0-1-1-1-1-1-1/3/|

Outro
G|----|
D|----|
A|----|    
E|-5~-|
Comments