Marilyn Manson - Coma White Chords & Tabs

 

Coma White Chords & Tabs

Marilyn Manson Chords & Tabs

Version: 2 Type: Bass Tab 0 ratings
1 star 2 stars 3 stars 4 stars 5 stars
comments

Coma White Bass Tab

   
Intro/Verse 
G:-------------------------------------
D:-------------------------------------
A:-0--------3--------------------------
E:-------------------3--------0--------     x5

Chorus
G:--------------------------------------------
D:--------------------------------------------
A:--------------------------------------------
E:-77777777-1010101010101010-55555555-33333333     x2

Bridge
G:------------------------------------------
D:------------------------------------------
A:------------------------------------------
E:-7777-10-12-6666-10-12-7777-12-10-33333333     x1

Verse
G:-------------------------------------
D:-------------------------------------
A:-0--------3--------------------------
E:-------------------3--------0--------     x4
[ Tab from: http://www.guitartabs.cc/tabs/m/marilyn_manson/coma_white_btab_ver_2.html ]
Chorus
G:--------------------------------------------
D:--------------------------------------------
A:--------------------------------------------
E:-77777777-1010101010101010-55555555-33333333     x4

Small Break - Come back in at 3:48 with Bridge
G:------------------------------------------
D:------------------------------------------
A:------------------------------------------
E:-7777-10-12-6666-10-12-7777-12-10-33333333     x1

Verse
G:-------------------------------------
D:-------------------------------------
A:-0--------3--------------------------
E:-------------------3--------0--------     x1

G:-------------------------------------
D:-------------------------------------
A:-00000000-33333333-------------------
E:-------------------33333333-00000000     x1

Chorus
G:--------------------------------------------
D:--------------------------------------------
A:--------------------------------------------
E:-77777777-1010101010101010-55555555-33333333     x4
Comments