Marilyn Manson - Coma White Acoustic Chords & Tabs

 

Coma White Acoustic Chords & Tabs

Marilyn Manson Chords & Tabs

Version: 1 Type: Tab 1 rating
1 star 2 stars 3 stars 4 stars 5 stars
comments

Coma White Acoustic Tab

E---------------------------------------------------------------------------------------------------------
   B------------------------------------------------------------------------------------------------------
   G------------------------------------------------------------------------------------------------------
   D---9-9-9-9-9--10-10--9-9-9-9-9--10-10--9-9-9-9-9--10-10--12-12-12-12-12-12-12-------------------------
   A--0-0-0-0-0--0--0---0-0-0-0-0--0--0---0-0-0--0---0--0---0--0--0--0--0--0--0---------------------------
   E------------------------------------------------------------------------------------------------------


   E----------------------------------------------------------
   B----------------------------------------------------------
   G----------------------------------------------------------
   D---10-10-10-10--9-9---------------------------------------
   A--0--0--0--0---0-0----------------------------------------


   Just repeat until the chors, but i'm still working on that.
             But enjoy.
[ Tab from: http://www.guitartabs.cc/tabs/m/marilyn_manson/coma_white_acoustic_tab.html ]
Comments