Marilyn Manson - Coma Black Chords & Tabs

 

Coma Black Chords & Tabs

Marilyn Manson Chords & Tabs

Version: 2 Type: Tab 0 ratings
1 star 2 stars 3 stars 4 stars 5 stars
comments

Coma Black Tab

pretty easy song, i only tab the first part(eden eye)
-standar tuning
-album: holy wood


Verse A GUITAR 1

e-3-------3---------3------------------|
B---5--------5---------5---------------|
G------4--------4----------------------|  (repeat a lot)
D--------------------------------------|
A--------------------------------------|
E--------------------------------------|
(''My mouth was a crib...'')

Verse B (guitar 2, all notes 8 times)
e--------------------------------------|
B--------------------------------------|
G--9-/-12---7---5---9-/-12---7---5-----|
D--x----x---x---x---x----x---x---x-----|
A--7-/-10---5---3---7-/-10---5---3-----|
E--0-/--0---0---0---0-/--0---0---0-----|
[ Tab from: http://www.guitartabs.cc/tabs/m/marilyn_manson/coma_black_tab_ver_2.html ]
Pre-chorus                                (End on this the 2nd time)
e----------------------------------------|--------------------|
B-----0-1-------0-1----------------------|--------------------|
G--------------------------2-0-----0---0-|-----0---2-0------0-|
D---2--------2---------0-----------------|---2----------------|
A-0--------0-------------0-----0h3---2---|-0-----0--------0---|
E----------------------------------------|--------------------|
(''I burned all the good tihngs in the Eden Eye...'')

Chorus  (Guitar 1)   (all notes 8 times)
e--------------------------------------|
B--------------------------------------|
G--------7--5----------7---5-----------|
D--2--5--7--5---2--5---7---5-----------|
A--2--5--5--3---2--5---5---3-----------|
E--0--3---------0--3-------------------|
(''This was never my world...'')

Chorus  (Guitar 2)
e-0--7--6^--7^----0--7--6^--7^---------|
B--------------------------------------|
G--------------------------------------|
D--------------------------------------|
A--------------------------------------|
E--------------------------------------|

This is a good song. The pre-chorus is very hard to ear so listen to the song often to 
it right.
This is my first tab, enjoy it!
Comments