Marilyn Manson - Coma Black Chords & Tabs

 

Coma Black Chords & Tabs

Marilyn Manson Chords & Tabs

Version: 2 Type: Bass Tab 0 ratings
1 star 2 stars 3 stars 4 stars 5 stars
comments

Coma Black Bass Tab

   
Coma Black - Marilyn Manson

By: Jon Craven (i_apathy@hotmail.com)
For questions, comments, feedback, an outline of the timing, write the above
address.

Notes:
  -Played with a pick.
  -The tempo seems between 75 and 76 bpm; using a metrinome, you'll notice it
seems off.

(4/4)(75 bpm)
Standard tuning

/ - slide up
r - eighth rest
R - quarter rest
* - note held for an eighth beat

A) Eden Eye

Pre-chorus: (1:01)
|----------------|----------------|----------------|----------------|
|----------------|----------------|----------------|----------------|
|----------------|----------------|----------------|----------------|
|5-5-5-5-5-5-5-5-|5-5-5-5-5-5-5-5-|5-5-5-5-5-5-5-5-|5-5-5-5-5-5-5-5-|

|----------------|----------------|------------------------|----------------|
|----------------|----------------|------------------------|----------------|
|----------------|----------------|------------------------|----------------|
|5-5-5-5-5-5-5-5-|5-5-5-5-5-5-5-5-|10-10-10-10-10-10-10-10-|8-8-8-8-8-8-7-7-|
[ Tab from: http://www.guitartabs.cc/tabs/m/marilyn_manson/coma_black_btab_ver_2.html ]
Chorus: (x2)(1:26)
|----------------|----------------|-----------------------|----------------|
|----------------|----------------|-----------------------|----------------|
|----------------|----------------|-----------------------|----------------|
|0-0-0-0-0-0-0-0-|3-3-3-3-3-3-3-3-|5/10-10-10-10-10-10-10-|8-8-8-8-8-8-8-8-|

Rest for twelve measures
Chorus (x2)

Bridge: (x4)(2:56)
|----------------|
|----------------|
|----------------|
|5-5-5-5-5-5-5-5-|

Pre-chorus
Chorus (x4)

B) The Apple of Discord (4:26)

Verse: (x3)(5:17)
|-----------------|-------------------|
|-----------------|-------------------|
|-----------------|-------------------|
|0---r-12-R---R---|0---r-12-r-10-12---|

Outro: (5:36)                                        (hold till end)
|----------------|------------------|----------------|----------------|
|----------------|------------------|----------------|----------------|
|----------------|------------------|----------------|----------------|
|8-*-*-*-3-*-*-*-|0-*-*-*-r-10-12---|8-*-*-*-3-*-*-*-|0-*-*-*-*-*-*-*-|
Comments