Marilyn Manson - Coma Black Chords & Tabs

 

Coma Black Chords & Tabs

Marilyn Manson Chords & Tabs

Version: 1 Type: Bass Tab 0 ratings
1 star 2 stars 3 stars 4 stars 5 stars
comments

Coma Black Bass Tab

Song: Coma Black
Artist: Marilyn Manson
Tabbed by: Hector Martinez (Dr_Su1c1de@hotmail.com)


This is what it sounds like to me... Enjoy!


*Apple of Discord*

A ---7------10------5-----3
D -------------------------


(Burn All the good things in the eden eye)
A ---7---7---10---10---5---5---3---3
D ----------------------------------

[ Tab from: http://www.guitartabs.cc/tabs/m/marilyn_manson/coma_black_btab.html ]
              (tens..........)
A ---77777777-1010101010101010-55555555-33333333
D ----------------------------------------------



*Eden Eye*
     w
A ---7-----------
D ---------------


play this the second time Manson sings "her heart's a blood stained egg"
A --------------------5-7-7
D ---00--00-----00--0------

then play...
A ---5---3-------5-7-7
D -----------0--------
Comments