Marilyn Manson - Cake And Sodomy Chords & Tabs

 

Cake And Sodomy Chords & Tabs

Marilyn Manson Chords & Tabs

Version: 3 Type: Tab

Cake And Sodomy Tab

Well the tabs on this site arnt very good so heres how i play it and i think it sounds 
it, the timing isnt exact but if you have half a brain and ear u can figure it out on ur 
This is Mansons best song so i hope you enjoy.

LEGEND:
/= slide (if there is no number after it then slide down all the way, if there is no 
before slide up from wherever)
<#>= Natural Harmonic
X= muffled string
X/= Pickslide
WD= Whammy Dive

in the beginning with the drums, people  saying white trash, n bass, at first its just 
and shit n then the guitar plays

e|--------------------------------------------------------------------------|
B|--------------------------------------------------------------------------|
G|--------------------------------------------------------------------------|
D|--------------------------------------------------------------------------|
A|-9-9/------9-9/------9-9/-----9-9/4----4/9--------------------------------|
E|-7-7/------7-7/------7-7/-----7-7/2----2/7--------------------------------|
                                   |________|  hold notes the whole time


then

Virgins sold in quantity          Herded by Heredity
Red neck burn out midwest mind    Who said date rape isnt kind?
e|--------------------------------------------------------------------------|
B|--------------------------------------------------------------------------|
G|---------------------------------<7>---<7>--<7>-<7>-<7>-------------------|
D|--------------------------------------------------------------------------|
A|-9-9/---------------------------------------------------------------------|
E|-7-7/---------------------------------------------------------------------|

then it goes like this 2 times then the lyrics come in
Porno Nation, Evaluation...
e|--------------------------------------------------------------------------|
B|--------------------------------------------------------------------------|
G|--------------------------------------------------------------------------|
D|--------------------------------------------------------------------------|
A|-9-9/---/99999999-777777---444444-----------------------------------------|
E|-7-7/---/77777777-55555575-22222252---------------------------------------|

libido labeedo fascination....
e|--------------------------------------------------------------------------|
B|--------1212121212121212/---1010101010101010/---7-7-7-7-7-7-7-7/----------|
G|--------1111111111111111/---9-9-9-9-9-9-9-9-/---6-6-6-6-6-6-6-6/----------|
D|--------9-9-9-9-9-9-9-9-/---7-7-7-7-7-7-7-7-/---4-4-4-4-4-4-4-4/----------|
A|-9-9/---------------------------------------------------------------------|
E|-7-7/---------------------------------------------------------------------|
[ Tab from: http://www.guitartabs.cc/tabs/m/marilyn_manson/cake_and_sodomy_tab_ver_3.html ]
then its the chorus which goes like this
e|--------------------------------------------------------------------------|
B|-----------------<7>------------------------------------------------------|
G|-----------------<7>------------------------------------------------------|
D|-----------------<7>-----------------------------7---7--------------------|
A|-9-9--XXXX--7-7---------/4--4-4--4-4-4--7-7-7-7--5---5--------------------|
E|-7-7--XXXX--5-5---------/2--2-2--2-2-2--5-5-5-5---------------------------|

e|-----------------7/5-5----------------------------------------------------|
B|-----------------7/5-5----------------------------------------------------|
G|--------------------------------------------------------------------------|
D|----------------------------------------7-7-7-7---------------------------|
A|-9-9--X///--7-7---------/4--4-4--4-4-4--5-5-5-5--7---7--------------------|
E|-7-7--X///--5-5---------/2--2-2--2-2-2-----------5---5--------------------|
repeat the past two things

now the second verse starts after "i am the god of fuck, i am the god of fuck"
vcrs and vaseline.....
e|----------------<7>-------<5>---------------------------------------------|
B|-------------<7>-------<5>-----10-7-10-7/---------------------------------|
G|----------<7>-------<5>---------------------------------------------------|
D|--------------------------------------------------------------------------|
A|-9-9/---------------------------------------------------------------------|
E|-7-7/---------------------------------------------------------------------|

then you play this thing through twice n then twice through with lyrics
e|-------------------------------<7>-------------<5>------------------------|
B|-------<7>-<5>-<7>WD--------------<7>-------------<5>---------------------|
G|-------<7>-<5>-<7>WD------------------------------------------------------|
D|-------<7>-<5>-<7>WD------------------------------------------------------|
A|-9-9-------------------7--7-7----------4--4-4-----------------------------|
E|-7-7-------------------5--5-5----------2--2-2-----------------------------|


then you play the chorus n then like this interlude solo thing thats easy as balls n 
has some effects n u can use a whammy in, which goes as follows
e|--------------------------------------------------------------------------|
B|--7--7--7--7----10-10-10-10--10-10-10-------------------------------------|
G|--6--6--6--6----9--9--9--9---9--9--9--------------------------------------|
D|--4--4--4--4----7--7--7--7---7--7--7--------------------------------------|
A|--------------------------------------------------------------------------|
E|--------------------------------------------------------------------------|
u just use a wah n some whammy n change the rythm up a lil n thats pretty much the "solo"


then you just like play the chorus and thats the song.
-Phil