Marilyn Manson - Burning Flag Chords & Tabs

 

Burning Flag Chords & Tabs

Marilyn Manson Chords & Tabs

Version: 1 Type: Tab 0 ratings
1 star 2 stars 3 stars 4 stars 5 stars
comments

Burning Flag Tab

artist- Marilyn Manson
tabbed by-Bryan Gaulke
(D-tune)
drums start with the sweet toms then there this...
e--------------------------------------------------------------|
b--------------------------------------------------------------|
g--------------------------------------------------------------|
d-0-6-0----------0-6-0----------0-6-0--------------0-6-0-------|
a-0-6-0----------0-6-0----------0-6-0--------------0-6-0-------|
e-0-6-0----------0-6-0----------0-6-0--------------0-6-0-------|
then break into
e---------------------------------|
b---------------------------------|
g---------------------------------|
d-xx-3-0-xx-3-0-xx-3-0--x\666666--|do that a number a times u can figure that much out
a-xx-3-0-xx-3-0-xx-3-0--x\666666--|
e-xx-3-0-xx-3-0-xx-3-0--x\666666--|

songs keeps doing that same format besides one part where it goes point a gun at me
e-------------|
b-2--3--5--4--|
g-5--5--5--5--|
d-------------|do that twice then the 2nd or 3rd time i forgot u go into this
a-------------|
e-------------|
turn distortion down
e-------------|
b-------------|
g-------------|
d-xx-6-0--x-3-|do that like 3 times the back into chorus which i forgot to add so here ya go
a-xx-6-0--x-3-|
e-xx-6-0--x-3-|

chorus
e------------------|
b------------------|
g-5-5-5-5-5\3-6-6--|
d-5-5-5-5-5\3-6-6--|u figure out how may times, enjoy...
a-3-3-3-3-3\1-4-4--|
e------------------|
[ Tab from: http://www.guitartabs.cc/tabs/m/marilyn_manson/burning_flag_tab.html ]
Comments