Marilyn Manson - Beautiful People Chords & Tabs

 

Beautiful People Chords & Tabs

Marilyn Manson Chords & Tabs

Version: 5 Type: Tab 0 ratings
1 star 2 stars 3 stars 4 stars 5 stars
comments

Beautiful People Tab

#########################################################
Ok here the main part to Marilyn's Manson "The Beautiful People"
It sounds good with heavy distorter and tune down 1/2 step. But
you can play it regular tuning

(INTRO) when drum part
         
PM[---------------------------] repeat 8 times
e--------------------------------------------------------
B--------------------------------------------------------
G--------------------------------------------------------
D------7-----7-----7---7--7------------------------------
A------7----7-----7---7---7------------------------------
E------5----5-----5----5--5------------------------------
[ Tab from: http://www.guitartabs.cc/tabs/m/marilyn_manson/beautiful_people_tab_ver_5.html ]
                                    
e--------------------------------------------------------
B--------------------------------------------------------
G---------------------------repeat 4 times---------------
D-------0----6--0----------------------------------------
A-------0----6--0----------------------------------------
E--------0---6---0---------------------------------------

  the way I tabbed it, it look wrong but listen and you'll figure it out.
e--------------------------------------------------------
B--------------------------------------------------------
G--------------------------------------------------------
D-----0----6---0------0--6--0---0-3--0-3-0---------------
A-----0---6---0------0---6--0---0-3--0-3-0---------------
E-----0---6----0------0---6--0-- 0-3--0-3-0--------------

that the main song, but then it has other stuff like keyboard bass 

Comments