Marilyn Manson - Beautiful People Chords & Tabs

 

Beautiful People Chords & Tabs

Marilyn Manson Chords & Tabs

Version: 4 Type: Tab 0 ratings
1 star 2 stars 3 stars 4 stars 5 stars
comments

Beautiful People Tab

this song is so easy. if you cant play it then you suck. this is the first
time i ever submitted tabs or tabbed a song on my own so if got any comments
or crap like that e-mail me at roachunion2240@peoplepc.com. idont know what
the symbol for palm mute is so i made up my own. enjoy.

palm mute:p
[ Tab from: http://www.guitartabs.cc/tabs/m/marilyn_manson/beautiful_people_tab_ver_4.html ]
e----------------------------------------------------------
B----------------------------------------------------------
G----------------------------------------------------------
D----------------------------------------------------------
A-p-p-p-p-p-p-p-p-p-0-3-0-p-p-p-p-p-p-p-0-3-0--------------
D-p-p-p-p-p-p-p-p-p-0-3-0-p-p-p-p-p-p-p-0-3-0--------------
     do that a couple times
e----------------------------------------------------------
B----------------------------------------------------------
G----------------------------------------------------------
D----------------------------------------------------------
A-0-6-0-6-0---0-6-0-6-0---0-6-0----------------------------
D-0-6-0-6-0---0-6-0-6-0---0-6-6----------------------------
      and do that a couple times

its not the whole song but it sounds right.
Comments