Marilyn Manson - Beautiful People Chords & Tabs

 

Beautiful People Chords & Tabs

Marilyn Manson Chords & Tabs

Version: 4 Type: Bass Tab 0 ratings
1 star 2 stars 3 stars 4 stars 5 stars
comments

Beautiful People Bass Tab

   
The Beautiful People - Marilyn Manson

By: Jon Craven (i_apathy@hotmail.com)
For questions, comments, feedback, an outline of the timing, write the above
address.

Notes:
  -Played with a pick.
  -The tempo seems between 144 and 145 bpm; using a metrinome, you'll notice
it seems off.

(4/4)(145 bpm)
Dropped-D tuning

|-R-| - rest for one measure
R - quarter rest
r - eighth rest
* - note held for an eighth beat
+ - note held for a sixteenth beat
/ - slide up

Intro pt.1: (x3)(0:17)
|---|----------------|
|---|----------------|
|---|----------------|
|-R-|R---R---r-0-3-0-|

Intro pt.2 (verse/chorus/fill/bridge): (x4)(0:31)
|----------------|----------------|
|----------------|----------------|
|----------------|----------------|
|r-0-6-0-6-0-r-0-|6-0-6-0-r-0-3-0-|

Verse (x8)

Pre-chorus: (x2)(1:11)
|-----------------|-----------------|-----------------|----------------|
|-----------------|-----------------|-----------------|----------------|
|-----------------|-----------------|-----------------|----------------|
|0-*-*-*-*-*-*-+11|*-*-*-*-*-*-*-+10|*-*-*-*-*-*-*/17-|*-*-*-*-*-*-*-*-|
[ Tab from: http://www.guitartabs.cc/tabs/m/marilyn_manson/beautiful_people_btab_ver_4.html ]
Chorus (x4)
Fill (x2)
Verse (x6)
Chorus (x4)
Pre-chorus (x2)
Bridge (x4)
Rest for eight measures
Chorus (x4)

Outro: (3:11)
|----------------|----------------|----------------|----------------|
|----------------|----------------|----------------|----------------|
|----------------|----------------|----------------|----------------|
|r-0-6-0-6-0-r-0-|6-0-6-0-r-0-3-0-|r-0-6-0-6-0-r-0-|6-0-6-0-6-0-3-0-|

|----------------|----------------|----------------|----------------|
|----------------|----------------|----------------|----------------|
|----------------|----------------|----------------|----------------|
|r-0-6-0-6-0-r-0-|6-0-6-0-r-0-3-0-|r-0-6-0-6-0-r-0-|6-0-6-0-6-0-3-0-|

|----------------|----------------|----------------|----------------|
|----------------|----------------|----------------|----------------|
|----------------|----------------|----------------|----------------|
|r-0-6-0-6-0-r-0-|6-0-6-0-6-0-3-0-|r-0-6-0-6-0-r-0-|6-0-6-0-6-0-3-0-|

|----------------|----------------|
|----------------|----------------|
|----------------|----------------|
|r-0-6-0-6-0-r-0-|6-0-6-0-6-0-3-0-|

Rest till end
Comments