Marilyn Manson - Apple Of Sodom Chords & Tabs

 

Apple Of Sodom Chords & Tabs

Marilyn Manson Chords & Tabs

Version: 3 Type: Bass Tab 0 ratings
1 star 2 stars 3 stars 4 stars 5 stars
comments

Apple Of Sodom Bass Tab

   
Apple of Sodom - Marilyn Manson

By: Jon Craven (i_apathy@hotmail.com)
For questions, comments, feedback, an outline of the timing, write the above
address.

Note:
  -Played with a pick.

(4/4)(99 bpm)
Dropped-D tuning

* - note held for an eighth beat
r - eighth rest
\ - slide down
. - sixteent rest

Chorus (verse 1): (x8)(0:53)
|-----------------|-------------------|
|-----------------|-------------------|
|-----------------|-----------12-*-*--|
|0-*-*-r-12\----r-|0---r-.12\---------|

Verse 1 (x4)
[ Tab from: http://www.guitartabs.cc/tabs/m/marilyn_manson/apple_of_sodom_btab_ver_3.html ]
Pre-chorus: (x4)(1:32)
|-----------------|-------------------|
|-----------------|-------------------|
|-----------------|-------------------|
|12-*-*-*-0-*-*-*-|15-*-*-14-*-*-13---|

Chorus (x6)
Rest for twelve measures

Verse 2: (x4)(2:49)
|------------------|-------------------|
|------------------|-------------------|
|------------------|-------------------|
|0---0---0-12-13---|0---0---0-12-13-12-|

Outro: (x8)(3:09)(fades on 7th repeat)
|-----------------|----------------------|-----------------|
|-----------------|----------------------|-----------------|
|-----------------|----------------------|-----------------|
|0---12--12-*-*-*-|12-10-12-*-*-10-12-10-|0---12--12-*-*-*-|

|-----------------------|
|-----------------------|
|-----------------------|
|12-10-12---10-12-10-12-|
Comments