Marilyn Manson - Antichrist Superstar Chords & Tabs

 

Antichrist Superstar Chords & Tabs

Marilyn Manson Chords & Tabs

Version: 4 Type: Tab 0 ratings
1 star 2 stars 3 stars 4 stars 5 stars
comments

Antichrist Superstar Tab

   
Antichrist SvperStar Album by Marilyn Manson
by: Rodrigo "R0D Z0MBIE" Espichan

Here`s the whole Antichrist SuperStar Album
Enjoy
______________________________________________________________________________________________
1-Irresponsible Hate Anthem

Intro-
----------------------------------------------------------------|
----------------------------------------------------------------|
----------------------------------------------------------------|
------------4-4-5-5-5-4-4-4-----------------4-4-----------------|
4-4-4-7-7-7-2-2-3-3-3-2-2-2-7-7-4-4-4-7-7-7-2-2-2-2-2-2-2-2-3-3-|
2-2-2-5-5-5-----------------5-5-2-2-2-5-5-5-----0-0-0-0-0-0-1-1-|

----------------------------------------------------------------|
----------------------------------------------------------------|
----------------------------------------------------------------|
------------4-4-5-5-5-4-4-4-----------------4-4-9-9-9-9-9-9-9-9-|
4-4-4-7-7-7-2-2-3-3-3-2-2-2-7-7-4-4-4-7-7-7-2-2-7-7-7-7-7-7-7-7-|
2-2-2-5-5-5-----------------5-5-2-2-2-5-5-5---------------------|


Chorus-
-----------------------------------------------------|
-----------------------------------------------------|
-----------------------------------------------------|
----4------4------4------4------4-----4--------------|
-4--2-7--4-2-7-4--2-7--4-2-7-4--2-7-4-2-7-2--2--2--3-|
-2----5--2---5-2----5--2---5-2----5-2---5-0--0--0--1-|

-----------------------------------------------------|
-----------------------------------------------------|
-----------------------------------------------------|
----4------4------4------4------4-----4--------------|
-4--2-7--4-2-7-4--2-7--4-2-7-4--2-7-4-2-7-9--9--9--9-|
-2----5--2---5-2----5--2---5-2----5-2---5-7--7--7--7-|


____________________________________________________________________________
2_ THE BEAUTIFUL PEOPLE

Tunning: Drop D (DADGBe)-All Distortion

Fig #1
E|--------------------------------|
B|--------------------------------|
G|--------------------------------|
D|x-x-x-x-x-x-x-x-x-x-x-x-x-x-x-x-|
A|x-x-x-xx-x-x-x-x-x-x-x-x-x-x-x-|
D|x-x-x-x-x-x-x-xx-x-x-xx-x-x-x-|

Fig#2
E|----------------------------------|
B|----------------------------------|
G|----------------------------------|
D|-0-3-0----0-3-0----0-3-0----0-3-0-|
A|-0-3-0----0-3-0----0-3-0----0-3-0-|
D|-0-3-0----0-3-0----0-3-0----0-3-0-|

Fig #3
E|------------------------------------|
B|------------------------------------|
G|------------------------------------|
D|--0-6-0-6-0----0-6-0-6-0-----0-3-0--|
A|--0-6-0-6-0----0-6-0-6-0-----0-3-0--|
D|--0-6-0-6-0----0-6-0-6-0-----0-3-0--|

Fig #4
E|-----------------|
B|-----------------|
G|-----------------|
D|-----------------|
A|--5---4---3---2--|
D|-----------------|

Fig #5
E|----------------------------------------------------|
B|----------------------------------------------------|
G|----------------------------------------------------|
D|--x-x-x-3-0----x-x-x-3-0----x-x-x-3-0----x-x-x-3-0--|
A|--x-x-x-3-0----x-x-x-3-0----x-x-x-3-0----x-x-x-3-0--|
D|--x-x-x-3-0----x-x-x-3-0----x-x-x-3-0----x-x-x-3-0--|

Fig #6
E|----------------------------------|
B|----------------------------------|
G|----------------------------------|
D|--0-6-0-6-0----0-6-0-6-0-6-5-3-0--|
A|--0-6-0-6-0----0-6-0-6-0-6-5-3-0--|
D|--0-6-0-6-0----0-6-0-6-0-6-5-3-0--|

Song Order
Fig #1=x2
Fig #2=x1
Fig #3=x4
Fig #1=x2
Fig #4=x2
Fig #3=x4
Fig #5=x2
Fig #3=x4
Fig #4=x2
Fig #3=x4
Fig #5=x3
Fig #6=x4
________________________________________________________________________________
2_Dried Up,Tied Up and Dead To The World

tuning:  drop d tunning


im not shure about the first
 three chords:
riff1        (0:30)
E|----------------------------|
B|----------------12~12~------|
G|---9--10-9------12~12~------|
D|---x--x--x------------------|     x4
A|---7--8--7------------------|
D|----------------------------|


riff2     (0:42)
E|------------------------------------------|
B|--5-6-5-----5-6-5-----5-6-5--5-6-7-8------|
G|------------------------------------------|
D|------------------------------------------|        X1
A|------------------------------------------|
D|------------------------------------------|


riff3    (0:47)  1,3,4,6,7      2,5,8
E|-------------|-------------|--------|
B|-------------|-------------|--------|
G|-------------|-------------|--------|
D|-------------|-------------|--------|      X1
A|--22-0-2-----|-55---777----|--0-----|
D|--22-0-2-----|-55---777----|--0-----|
 PLAY EVERYTIME


riff4(chorus)    (1:09)
E|-------------------------------------------------|
B|-------------------------------------------------|
G|--999999-----777777-----44444-----5555-2-22------|
D|--999999-----777777-----44444-----5555-2-22------|    X2
A|--777777-----555555-----22222-----3333-0-00------|
D|-------------------------------------------------|


riff2  x2         (1:30)

riff1  x4         (1:52)

riff5(chorus 2)    (2:03)
E|-------------------------------------------------|
B|----------5~---------5~--------5~----------------|
G|--999999-----777777-----44444-----5555-2-22------|
D|--999999-----777777-----44444-----5555-2-22------|    X2
A|--777777-----555555-----22222-----3333-0-00------|
D|-------------------------------------------------|

riff6             (2:26)
                1,3,4       2
E|----------|-----------|-------|
B|----------|-----------|-------|
G|----------|-----------|-------|     X1  CLEAN
D|----------|-----------|-------|     X1  DISTORTION
A|--22-0-2--|--55--777--|---0---|
D|--22-0-2--|--55--777--|---0---|


riff5  x2        (2:48)

riff7             (3:08)
E|----------------------------------------------------------|
B|----------------------------------------------------------|
G|--99-7-9--/10~---99-7-9--/10~---99-7-9--/10~--------------|
D|--99-7-9--/9~~---99-7-9--/9~~---99-7-9--/9~~----9~8~7~5~--|    x2
A|--77-5-7---------77-5-7---------77-5-7--------------------|
D|----------------------------------------------------------|

riff8              (3:30)
E|---------------------|
B|----------------4^5--|
G|---------------------|
D|--22-22--2222--------|
A|--22-22--2222--------|
D|--22-22--2222--------|
   ............PM


~~      TREMOLO
4^5     BEND A FULL STEP
/ /     SLIDE
...     PALM MUTING
XX      MUTE STRING

this is tabbed from remix and repent,
mainly because you can hear the guitar alot better, the only differance
between the cd version and "remix a repent" version is the time the riffs start,
so if you play along with the actual cd just don't take any notice of the time above the tab.
                                                      pogo_76
______________________________________________________________________________________________
4_ Tourniquet

beginning

G|----------------------------8|
D|9b-----9--7--5--7-----7-----7|
{repeat 4x}

quiet part

G|---------------------------------------9-------|
D|7-----10-----7-----10-----7-----10-----------10|

chorus ( i guess)  its not the heavy guitar, but the
quiet guitar in the backgruond

          (Bend up and then back down)
                    |
                    v
G|-------------9---8b--------|
D|7-----10-----------------10|
{repeat 2x}

Yeah,thats it.
______________________________________________________________________________________________
5_Little horn

   Intro and Main Riff
e|----------------------------------------------------------------------|
B|----------------------------------------------------------------------|
G|----------------------------------------------------------------------|
D|---3-0-0-3-0-0-3-0-0-3-0-0-3-0-5---3-0-0-3-0-0-3-0-0-3-0-0-6-5-3------|
A|---3-0-0-3-0-0-3-0-0-3-0-0-3-0-5---3-0-0-3-0-0-3-0-0-3-0-0-6-5-3------|(x6)
D|---3-0-0-3-0-0-3-0-0-3-0-0-3-0-5---3-0-0-3-0-0-3-0-0-3-0-0-6-5-3------|


Riff 2(This part is being played when he is singing, Little Horn Is Born)

e|----------------------------------------------|
B|----------------------------------------------|
G|----------------------------------------------|
D|---6-6-6-6-6-6-6-6-6-6-6-6-6-5-3-0------------|
A|---6-6-6-6-6-6-6-6-6-6-6-6-6-5-3-0------------|(x4)
D|---6-6-6-6-6-6-6-6-6-6-6-6-6-5-3-0------------|


Chorus (This is when he sings, World Spreads It's Legs For Another Star ......etc)

e|--------------------------------------------------------------|
B|--------------------------------------------------------------|
G|--------------------------------------------------------------|
D|---0-6-5-3-5-3-1-3-0-0-3-0-0-3-0-0-3-0-0-3-0-5----------------|
A|---0-6-5-3-5-3-1-3-0-0-3-0-0-3-0-0-3-0-0-3-0-5----------------|(x2)
D|---0-6-5-3-5-3-1-3-0-0-3-0-0-3-0-0-3-0-0-3-0-5----------------|

Main Riff Again

e|----------------------------------------------------------------------|
B|----------------------------------------------------------------------|
G|----------------------------------------------------------------------|
D|---3-0-0-3-0-0-3-0-0-3-0-0-3-0-5---3-0-0-3-0-0-3-0-0-3-0-0-6-5-3------|
A|---3-0-0-3-0-0-3-0-0-3-0-0-3-0-5---3-0-0-3-0-0-3-0-0-3-0-0-6-5-3------|(x2)
D|---3-0-0-3-0-0-3-0-0-3-0-0-3-0-5---3-0-0-3-0-0-3-0-0-3-0-0-6-5-3------|

Riff 2 again

e|----------------------------------------------|
B|----------------------------------------------|
G|----------------------------------------------|
D|---6-6-6-6-6-6-6-6-6-6-6-6-6-5-3-0------------|
A|---6-6-6-6-6-6-6-6-6-6-6-6-6-5-3-0------------|(x4)
D|---6-6-6-6-6-6-6-6-6-6-6-6-6-5-3-0------------|

Chorus again

e|--------------------------------------------------------------|
B|--------------------------------------------------------------|
G|--------------------------------------------------------------|
D|---0-6-5-3-5-3-1-3-0-0-3-0-0-3-0-0-3-0-0-3-0-5----------------|
A|---0-6-5-3-5-3-1-3-0-0-3-0-0-3-0-0-3-0-0-3-0-5----------------|(x2)
D|---0-6-5-3-5-3-1-3-0-0-3-0-0-3-0-0-3-0-0-3-0-5----------------|

Riff 3 (It goes into that really fast-sounding part after the 2nd run through the Chorus)

e|----------------------------------------------------------------|
B|----------------------------------------------------------------|
G|----------------------5-5-5-------------------------------------|
D|---6-6-6-5-5-5-3-3-3--5-5-5--0-0-0-0----------------------------|(x4)-(Ends on this chord)
A|---6-6-6-5-5-5-3-3-3--3-3-3--0-0-0-0----------------------------|
D|---6-6-6-5-5-5-3-3-3---------0-0-0-0----------------------------|

Main Riff again

e|----------------------------------------------------------------------|
B|----------------------------------------------------------------------|
G|----------------------------------------------------------------------|
D|---3-0-0-3-0-0-3-0-0-3-0-0-3-0-5---3-0-0-3-0-0-3-0-0-3-0-0-6-5-3------|
A|---3-0-0-3-0-0-3-0-0-3-0-0-3-0-5---3-0-0-3-0-0-3-0-0-3-0-0-6-5-3------|(x4)
D|---3-0-0-3-0-0-3-0-0-3-0-0-3-0-5---3-0-0-3-0-0-3-0-0-3-0-0-6-5-3------|

Chorus one last time

e|-------------------------------------------------------------|
B|-------------------------------------------------------------|
G|-------------------------------------------------------------|
D|---0-6-5-3-5-3-1-3-0-0-3-0-0-3-0-0-3-0-0-3-0-5---------------|
A|---0-6-5-3-5-3-1-3-0-0-3-0-0-3-0-0-3-0-0-3-0-5---------------|(x2)
D|---0-6-5-3-5-3-1-3-0-0-3-0-0-3-0-0-3-0-0-3-0-5---------------|
______________________________________________________________________________________________
6_Cryptorchid

Verse A (Guitar 1)
e--9----5----7----9----12----10----9---------------------|
B--------------------------------------------------------|
G--------------------------------------------------------|
D--------------------------------------------------------|
A--------------------------------------------------------|
E--------------------------------------------------------|
("Each time I make my mother cry...")

Verse B (Guitar 2)
e-----------------------------------------------------14-|
B------12-11--------12-11-------12-11---------12-11------|
G--9------------9-----------9-----------8-9--------------|
D--------------------------------------------------------|
A--------------------------------------------------------|
E--------------------------------------------------------|

Chorus A (Synth for Guitar 1)
e--------------------------------------------------------|
B--13--------10-11---10----13--------10-11---10----------|
G--12---12------10---10----12---12------10---10----------|
D--10---12-------8---------10---12-------8---------------|
A-------10------------8---------10------------8----------|
E--------------------------------------------------------|
("##### your finger it is done...")

Chorus B (Guitar 2)
e--------------------------------------------------------|
B--13--------10-11---10----13--------10-11---10----------|
G-------12----------------------12-----------------------|
D--------------------------------------------------------|
A--------------------------------------------------------|
E--------------------------------------------------------|

Verse A
Verse A, B
Chorus A
Chorus A, B
Chorus A
______________________________________________________________________________________________
7_ Deformography

drop D-tuning

riff 1 (it kinda sounds like theres a little wah-wah in this one)
e||-----------------------------------||
B||-----------------------------------||
G||-----------------------------------||
D||-----------------------------------||
A||--2---2---1---1--------------------||
D||------------------2---2---0--2--5--||


riff 2 (distortion)
e||-----------------------------------||
B||-----------------------------------||
G||--4---4---3---3--------------------||
D||--4---4---3---3---2---2---0--2--5--||
A||--2---2---1---1---2---2---0--2--5--||
D||------------------2---2---0--2--5--||


riff 3 (chorus riff: its in the background of that weird keyboard
part)
e||-----------------------------------||
B||-----------------------------------||
G||--9-9-9-9-9-9-9-9-9-9-9-9---5-5-5--||
D||--9-9-9-9-9-9-9-9-9-9-9-9---5-5-5--||
A||--7-7-7-7-7-7-7-7-7-7-7-7---3-3-3--||
D||-----------------------------------||


riff 4 (major distortion and this maybe wrong)
e||---------------------------------||
B||---------------------------------||
G||----------9-----9-9-9-9-9-7-7-7--||
D||--7-7-7-7-9-----9-9-9-9-9-7-7-7--||
A||--7-7-7-7-7-----7-7-7-7-7-5-5-5--||
D||--7-7-7-7-7-----7-7-7-7-7-5-5-5--||

riff 5 (palm mute the whole riff. it appears near the last chorus)
e||---------------------------||
B||---------------------------||
G||---------------------------||
D||---------------------------||
A||---------------------------||
D||--0-2-2-2-5-2-2-0---2-2-2--||
_________________________________________________________________________
8_Wormboy

Intro:
e||---------------------------||
B||---------------------------||
G||---------------------------||
D||---------------------------||
A||-7-7---5-5---9-9-----------||
D||-5-5---3-3---7-7-----------||
__________________________________________________________________________
9_Mr Superstar
[ Tab from: http://www.guitartabs.cc/tabs/m/marilyn_manson/antichrist_superstar_tab_ver_4.html ]
Intro/Verse-
-----------------|
-----------------|
-----------------|
-777999999999999-|
-555777777777777-|
-000000000000000-|
__________________________________________________________________________
10_ Angel with the scabbed wings

all strings tuned down half A step (Eb,Ab,Db,Gb,Bb,Eb)

riff 1a (listen to the song to get the weird tempo to this riff)
eb||-------------------||
Bb||-------------------||
Gb||-------------------||
Db||-------------------||
Ab||--3---4---5--3--2--||
Eb||--1---2---3--1--0--||


riff 1b (in background of riff 1a)
eb||-----------12~~~~--||
Bb||--11~~~------------||
Gb||--10~~~------------||
Db||--9~~~~------------||
Ab||-------------------||
Eb||-------------------||


riff 2                                   filla         fillb
eb||-------------------------------||-------------||----------||
Bb||-------------------------------||-------------||----------||
Gb||-------------------------------||--x-9-9-9-9--||----------||
Db||--3--2--x-x-x-x-9--x-x--x-x-x--||--x-x-x-x-x--||--\-3--2--||
Ab||--3--2--x-x-x-x-x--x-x--x-x-x--||--x-7-7-7-7--||--\-3--2--||
Eb||--1--0--x-x-x-x-7--x-x--x-x-x--||-------------||--\-1--0--||


riff 4 (mellow part, no distortion)
eb||------------------------------||
Bb||------------------------------||
Gb||------------------------------||
Db||----------3-------------------||
Ab||----------x-------------------||
Eb||--x-x-x-x-1--x-x--x-x-x-1--0--||


riff 5
eb||---------------------------||
Bb||---------------------------||
Gb||---------------------------||
Db||--3--2--x-x--x-x--x-x-x-x--||
Ab||--3--2--x-x--x-x--x-x-x-x--||
Eb||--1--0--x-x--x-x--x-x-x-x--||


riff 6 (chorus riff: palm mute all of the open Eb's)
eb||--------------------------------------------||
Bb||--------------------------------------------||
Gb||--2----5---8-----------------------8-8-8-8--||
Db||--2----5---8-----------------------x-x-x-x--||
Ab||--0----3---6-2---2---2---2-2--2-2--6-6-6-6--||
Eb||-------------0---0---0---0-0--0-0-----------||


riff 7 (its the same as riff 1a but starts at a different point)
eb||--------------------||
Bb||--------------------||
Gb||--------------------||
Db||--------------------||
Ab||--3--2---3---4---5--||
Eb||--1--0---1---2---3--||


riff 8 (bridge riff)               fill
eb||-----------------------------||--------||
Bb||-----------------------------||--------||
Gb||--x----4---3-----------------||--------||
Db||--x----4---3----3----4----6--||--3--2--||
Ab||--x----2---1----3----4----6--||--3--2--||
Eb||-----0----------1----2----4--||--1--0--||
_________________________________________________________________________________
11_ Kinderfield

tune all strings down half a step
(Eb,Ab,Db,Gb,Bb,Eb)

theres alot of variations of palm muting open Eb's so I put them
all down.

riff 1
(palm mute)
eb||-----------||
Bb||-----------||
Gb||-----------||
Db||-----------||
Ab||-----------||
Eb||--0-0-0-0--||

riff 2
(chorus riff: this is like the weird riff in wormboy except
wormboys strumming pattern is a set one. this one is a little
more random so this is the chord progression, not the strumming
pattern.

eb||-----|-----|-----|                  ||-----|-----|-----||
Bb||-----|--12-|--11-|                  ||-----|-----|-----||
Gb||--9--|--11-|--10-| fill for riff 2> ||--9--|--8--|--7--||
Db||--9--|--9--|--8--|                  ||--9--|--8--|--7--||
Ab||--7--|--9--|--8--|                  ||--7--|--6--|--5--||
Eb||--7--|-----|-----|                  ||--7--|--6--|--5--||

riff 3
(I dont know if this is keyboard or a guitar with a flanger pedal)

eb||----------------------------------13--||
Bb||--13------12----------12------11------||
Gb||--------------------------------------||
Db||--------------------------------------||
Ab||--------------------------------------||
Eb||--------------------------------------||

riff 4
(this continues on so its just a partial view of the riff. palm mute)

eb||-----------------------------------||
Bb||-----------------------------------||
Gb||-----------------------------------||
Db||-----------------------------------||
Ab||-----------------------------------||
Eb||--0-0-0-0-0-0-0-0-0-0-0-0-0-0-0-0--||

riff 5a
(palm mute all open Eb's. I think all Db and Gb string riffs are harmonics)

eb||-----------------------------------||
Bb||-----------------------------------||
Gb||--------------------1--------------||
Db||------2-1---2-1-------1---2-1-3-4--||
Ab||-----------------------------------||
Eb||--0-0-----0-----0-0-----0----------||

riff 5b
(I dont know if the last three are actually done with this riff
or just an echo of riff 5a)

eb||--------------------------||
Bb||--------------------------||
Gb||--4---3-------------------||
Db||--4---3---4---5----1-3-4--||
Ab||--2---1---4---5-----------||
Eb||----------2---3-----------||
riff 6a
(at first use a flanger pedal, then later on drown it alot more with the flanger)

eb||-----------------------------||
Bb||-----------------------------||
Gb||--12------11------10------9--||
Db||-----------------------------||
Ab||-----------------------------||
Eb||-----------------------------||

riff 6b
(palm mute. this comes in after doing riff 6a a couple of times)

eb||-----------------------------------------------------||
Bb||-----------------------------------------------------||
Gb||-----------------------------------------------------||
Db||-----------------------------------------------------||
Ab||-----------------------------------------------------||
Eb||--0-0-0-0-0-0-0-0-0-0-0-0-----0-0-0--0-0-0--0-0-0-0--||
_________________________________________________________________________________________
12_ Antichrist Svperstar

standard tuning. all riffs have major distortion

riff 1
e||--------||
B||--------||
G||--4--4--||
D||--4--4--||
A||--2--2--||
E||--------||


riff 2                   fill for riff 2
e||----------------5^--||------------------------||
B||--------------------||------------------------||
G||--4--4--7--4----2^--||--4--4--7--4--5-5-4--2--||
D||--4--4--7--4--------||--4--4--7--4--3-3-2--0--||
A||--2--2--5--2--------||--2--2--5--2------------||
E||--------------------||------------------------||


riff 3
e||--------------||
B||--------------||
G||--4--4--7--4--||
D||--4--4--7--4--||
A||--2--2--5--2--||
E||--------------||


riff 4 (this can be heard behind the first part of the chorus.just do
quick bends on each note.
e||--------------------------------------------------||
B||-------------------------6^-6^-6^-6^-6^-6^-6^-6^--||
G||--4^-4^-4^-4^-4^-4^-4^----------------------------||
D||--------------------------------------------------||
A||--------------------------------------------------||
E||--------------------------------------------------||


riff 5 (sometimes at the end do the last half of the riff twice and then
start the riff over again if required. just listen to the song.
e||------------------------------------------------||
B||------------------------------------------------||
G||--7--7--7--7--6--6--5--5--4--4--7--4--4-4-7--4--||
D||--7--7--7--7--6--6--5--5--4--4--7--4--4-4-7--4--||
A||--5--5--5--5--4--4--3--3--2--2--5--2--2-2-5--2--||
E||------------------------------------------------||
_________________________________________________________________________________
13_ 1996

Drop D
Verse
E-------------------------------------------------------|
B-------------------------------------------------------|
G-------------------------------------------------------|
D--222-575-888-75---------------------------------------|
A--222-575-888-75---------------------------------------|
D--222-575-888-75---------------------------------------|

Chorus
E-------------------------------------------------------|
B-------------------------------------------------------|
G-------------------------------------------------------|
D--2--5--8--7--xx-###--2--4--0--2--xx-###---------------|
A--2--5--8--7--xx-###--2--4--0--2--xx-###---------------|
D--2--5--8--7--xx-###--2--4--0--2--xx-###---------------|


Date: Mon, 23 Dec 1996 06:43:04 +0000
From: RADAM
To: Guitar@OLGA.net
Subject: 1996 by Marilyn Manson

This basically the only riff in this song

--------------------------------------------------------------------------------|e
--------------------------------------------------------------------------------|b
--------------------------------------------------------------------------------|g
--------------------------------------------------------------------------------|d
--------------------------------------------------------------------------------|a
0--0-0-3h5--6--6--6--5-3-0--0-03h5-6--6--6--5-3---------------------------------|e

        by Graham Nicholson


From v7b39@unb.ca Tue Jan 14 14:20:44 1997
Date: Tue, 14 Jan 1997 16:23:46 GMT-400
From: Zom Zom

"1996" by Marilyn Manson
album- AntiChrist  Superstar
Tabbed by David Cogswell

This is one of the cooler songs from AntiChrist.  I
play it half A step down (low to high- Eb Db Gb Bb Eb)

 -Bass-
D|------------------------------------------|
G|------------------------------------------|
B|------------------------------------------|
E|--0-0--3\5-6-6-6-5-3---0-0-3\5-6-6-6-5-3--|

 Then the band joins in to play
E|----------------------------------------|
B|----------------------------------------|
G|----------------------------------------|
D|-2-2-5\7-8-8-8-7-5--2-2-5\7-8-8-8-7-5---|
A|-2-2-5\7-8-8-8-7-5--2-2-5\7-8-8-8-7-5---|
E|-0-0-3\5-6-6-6-5-3--0-0-3\5-6-6-6-5-3---|

 And now it's chorus time!
E|-----------------------------------------------|
B|-----------------------------------------------|
G|--------------9-12-7\9--------------9-12-7\9---|
D|-2-5-7-8-7-5--9-12-7\9--2-5-7-8-7-5-9-12-7\9---|
A|-2-5-7-8-7-5--7-10-5\7--2-5-7-8-7-5-7-10-5\7---|
E|-0-3-5-6-5-3------------0-3-5-6-5-3------------|

And that's all there is to it.
____________________________________________________________________________________
14_ Minute of decay


It`s Only the chorus riff:
The minute that it`s born
D|------------------------------------------|
G|------------------------------------------|
B|------------------------------------------|
D|-5-5-5-5-5-5-5-7^-------------------------|
G|-5-5-5-5-5-5-5-7^-------------------------|
B|-3-3-3-3-3-3-3-5^-------------------------|

It begins to die
D|------------------------------------------|
G|------------------------------------------|
B|------------------------------------------|
D|-5-5-5-5-5-5-5-7^-------------------------|
G|-5-5-5-5-5-5-5-7^-------------------------|
B|-3-3-3-3-3-3-3-5^-------------------------|

Id like to just give in
D|------------------------------------------|
G|------------------------------------------|
B|------------------------------------------|
D|-5-5-5-5-5-5-5-7^-------------------------|
G|-5-5-5-5-5-5-5-7^-------------------------|
B|-3-3-3-3-3-3-3-5^-------------------------|

Id love to live this lie
D|------------------------------------------|
G|------------------------------------------|
B|------------------------------------------|
D|-7-7-7-7-7-7-7-5^-------------------------|
G|-7-7-7-7-7-7-7-5^-------------------------|
B|-5-5-5-5-5-5-5-3^-------------------------|
___________________________________________________________________________________
15_ The Reflecting God
---NOT FOUND---
___________________________________________________________________________________
16_ Man That You Fear
Acoustic, Standard tuning

 G                               B
-----------------------------------------------------------------|
-----------------------------------------------------------------|
---------------------------------4-----------4-------4---4-4-4---|
-5-----------5-------5---5-5-5-5-4-------4-----------4---4-4-4---|
-5-------------------5---5-5-5-5-2-------2-----2-----2---2-2-2---|
-3-------3-----------3---3-3-3-3---------------------------------|

 G                               A
-------------------------------------------------0---------------||
---------------------------------------------0-------0-----------||
-------------------------2---------------2---------------2-------||
-5-------5-----5-----2-------2-------2-----------------------2---||
-5-------5-----5-----------------0-------------------------------||
-3-------3-----3-------------------------------------------------||


The chord symbols given are not the exact symbols for the chords, I'm
just using those as a symbol to show when each part of the riff
is started during the verse.


2nd Verse-

G                B
   I have it all and I have no choice but

G                              A
to. I'll make everyone pay and you will see

G                        B
   You can kill yourself now because you're dead in my

G                                   A
mind. The boy that you loved is the monster you fear


Chorus Riff-
 E                               D
----------------------------------------------------------------|
----------------------------------------------------------------|
-9-------9-9---9---9-9-9-9-9-9-9-7-------7-7---7---7-7-7-7-7-7-7|
-9-------9-9---9---9-9-9-9-9-9-9-7-------7-7---7---7-7-7-7-7-7-7|
-7-------7-7---7---7-7-7-7-7-7-7-5-------5-5---5---5-5-5-5-5-5-5|
----------------------------------------------------------------|

 B                               A
----------------------------------------------------------------||
----------------------------------------------------------------||
----------------------------------------------------------------||
-9-------9-9---9---9-9-9-9-9-9-9-7-------7-7---7---7-7-7-7-7-7-7||
-9-------9-9---9---9-9-9-9-9-9-9-7-------7-7---7---7-7-7-7-7-7-7||
-7-------7-7---7---7-7-7-7-7-7-7-5-------5-5---5---5-5-5-5-5-5-5||


Chorus:

E                      D
Peel off all thos eyes/Crawl into the dark

    B                           A
You poison all your children to camouflage your scars

E                        D
Pray unto your splinters/Pray unto your fears

B                                   A
Pray your life was just a dream/The cut that never heals

E                 D                     B         A
    Pray now, baby/Pray your life was just dream  (Just a dream...)


[3rd Chorus extension]

    E                             D
The world in my hands and there's no one left to

 B              A
hear you scream/No one left for you
___________________________________________________________________________________

0K!!! There you go the whole album, i will tab some more albums
from other bands like Black Label Society, Rob Zombie, Marilyn Manson...

ENJ0Y!!!

                         ****R0D Z0MBIE****
Comments