Marilyn Manson - Antichrist Superstar Chords & Tabs

 

Antichrist Superstar Chords & Tabs

Marilyn Manson Chords & Tabs

Version: 2 Type: Tab 0 ratings
1 star 2 stars 3 stars 4 stars 5 stars
comments

Antichrist Superstar Tab

   
2. the beautiful people
Low to high: D, A, D, G, B, E.


INTRO

e)--------------------------------------------------------------------------|
b)--------------------------------------------------------------------------|
g)--------------------------------------------------------------------------|
d)--x--x--x--x--x---------------0----3---0-----0----3---0-------0---3---0---|
a)--x--x--x--x--x----repeat-----0----3---0-----0----3---0-------0---3---0---|
D)--x--x--x--x--x---------------0----3---0-----0----3---0-------0---3---0---|


----------------------------------------------------------------------------|
----------------------------------------------------------------------------|
----------------------------------------------------------------------------|
-0--3---0------0--6--0--6--0-----------0--6--0--6--0------------------------|
-0--3---0------0--6--0--6--0-----------0--6--0--6--0------repeat 4 times----|
-0--3---0------0--6--0--6--0-----------0--6--0--6--0------------------------|

Verse (bass only) Second part of verse guitar in

---------------------------------------------------------------------------|
---------------------------------------------------------------------------|
---------------------------------------------------------------------------|
--x--x--x--x--x--x--x--x--x--x--x--x--x--x---------------------------------|
--x--x--x--x--x--x--x--x--x--x--x--x--x--x-----------repeat----------------|
--x--x--x--x--x--x--x--x--x--x--x--x--x--x---------------------------------|


Bridge

----------------------------------------------------------------------------|
----------------------------------------------------------------------------|
--7--7--7--7------6--6--6------5--5--5-----4--4--4-----repeat-2-times-------|
----------------------------------------------------------------------------|
--5--5--5--5------4--4--4------3--3--3-----2--2--2--------------------------|
----------------------------------------------------------------------------|

Chorus
[ Tab from: http://www.guitartabs.cc/tabs/m/marilyn_manson/antichrist_superstar_tab_ver_2.html ]
-----------------------------------------------------------------------------|
-----------------------------------------------------------------------------|
-----------------------------------------------------------------------------|
--0--6--0--6--0-----------0--6--0--6--0---------0--3--0----------------------|
--0--6--0--6--0-----------0--6--0--6--0---------0--3--0-----repeat4-times----|
--0--6--0--6--0-----------0--6--0--6--0---------0--3--0----------------------|

Riff 1

Then When is ah,ah

-----------------------------------------------------------------------------|
-----------------------------------------------------------------------------|
-----------------------------------------------------------------------------|
-----------0--0--0--3--0-----------------0--0--0--3--0-----------------------|
-Ah,ah-----0--0--0--3--0-------Ah,ah,----0--0--0--3--0-----------------------|
-----------0--0--0--3--0-----------------0--0--0--3--0-----------------------|

Second Verse (repeat 2 times )

--------------------------------------------------------------------------|
--------------------------------------------------------------------------|
--7------hold---------------(7)--(7)--(7)--(7)---harmonics----------------|
--------------0--0--0--3--0-------------------------------0--0--0--3--0---|
--------------0--0--0--3--0-------------------------------0--0--0--3--0---|
--------------0--0--0--3--0-------------------------------0--0--0--3--0---|
Then hold harmonics

--------------------------------------------------------------------------|
--------------------------------------------------------------------------|
------7(7)--(7)--(7)--(7)-----harmonics-----------------------------------|
--------------------------------------------------------------------------|
--------------------------------------------------------------------------|
--------------------------------------------------------------------------|


intro
verse
bridge
chorus
riff 1(ah,ah,)
verse
chorus
bridge
chorus ( With out vocie)
riff 1 (ah,ah)
chorus 4x

i have the rest but,no time. the rest is comming
Comments