Marilyn Manson - Angel With The Scabbed Wings Chords & Tabs

 

Angel With The Scabbed Wings Chords & Tabs

Marilyn Manson Chords & Tabs

Version: 2 Type: Tab 0 ratings
1 star 2 stars 3 stars 4 stars 5 stars
comments

Angel With The Scabbed Wings Tab

MARILYN MANSON - ANGEL WITH THE SCABBED WINGS

Tabbed by: Mattias Jaselius

Tuning: Drop D

Note: This is only the rhythm parts!


INTRO: Repeat

e|----------|-----------------------------|
b|----------|-----------------------------|
g|----------|-----------------------------|
d|--2--3--4-|-2--1--2--3--4---------------|
a|--2--3--4-|-2--1--2--3--4---------------|
d|--2--3--4-|-2--1--2--3--4---------------|

RIFF 1: Repeat

e|---------------------------------------|
b|---------------------------------------|
g|---------------------------------------|
d|--2-1-xx-7-xx-xxx-2-1-xx-7-xx-xxx------|
a|--2-1-xx-8-xx-xxx-2-1-xx-8-xx-xxx------|
d|--2-1-xx-7-xx-xxx-2-1-xx-7-xx-xxx------|

RIFF 2: (Clean) Repeat
[ Tab from: http://www.guitartabs.cc/tabs/m/marilyn_manson/angel_with_the_scabbed_wings_tab_ver_2.html ]
e|----------------------------------|
b|----------------------------------|
g|----------------------------------|
d|-------1-------------1------------|
a|-------0-------------0------------|
d|-2-1xx-1-xxxxx-2-1xx-1-xxxxx------|
 (He is the angel with the scabbed wings...)

RIFF 3:

e|------------------------------------|
b|------------------------------------|
g|------------------------------------|
d|--2-1--11111111--2-1--11111111------|(Dead is what he is...)
a|--2-1--11111111--2-1--11111111------|
d|--2-1--11111111--2-1--11111111------|
      p.m........       ........ 
 
RIFF 4: Repeat

e|-----------------------------|
b|-----------------------------|
g|-----------------------------|
d|--6--9--13--111-111-1--5-----|(He is the maker...)
a|--6--9--13--111-111-1--6-----|
d|--6--9--13--111-111-1--5-----|
           p.m... ... .

RIFF 5: Repeat

e|-----------------------------------|
b|-----------------------------------|
g|--3-2---------3-2--9-10-11---------|
d|--3-2--2-3-4--3-2--9-10-11---------|
a|--1-0--2-3-4--1-0--7-8--9----------|
d|-------2-3-4-----------------------|
 (get back!...)

Song structure:

INTRO
RIFF 1
RIFF 2
RIFF 3
RIFF 4
INTRO
RIFF 4
RIFF 5
RIFF 2
RIFF 1

Thats All!!
Comments